Аккорды Радослава - Куколка

Добавлено: @romashka
Дата добавления: 10 Декабря 2020г.
Рейтинг:
0.0
Просмотров: 92
Транспонировать - +
Вступление (примерный вариант перебора):

  Am             Am7           Fmaj7            E               
E|-------0--------------0--------------0--------------0--------|
H|-----1------1-------1------1-------1------1-------0------0---|
G|---2------2---2---0------0---0---2------2---2---1------1---1-|
D|-------------------------------------------------------------|
A|-0-----------------------------------------------------------|
         E|----------------3--------------1--------------0--------------| - 2 раза

        Am               Am7           
Серебристый твой голосок звенит,
       Fmaj7            E              
По дорожке вдаль ножки так спешат
     Am          Am7           
Всё равно тебя я поймать смогу,
        Fmaj7        E         
Подожди меня, я к тебе бегу!

       Am    Csus2    G       Dm  
А когда пойдём мы с тобой вдвоём,
        Am       Csus2     G      Dm  
Ты ручонкой крепче за меня держись
      Am     Csus2        G       Dm  
Голосок звенит - значит, будем жить,
         Am Csus2         G         D   
Если сказка есть - в сказку верь, малыш,
                       Esus4
В сказку верь, малыш! 

Припев:

Am  Am7  Fmaj7       Dm     Am  Am7  Fmaj7          
Видишь, куколка спит...
Am  Am7  Fmaj7        Dm     Am  Am7  Fmaj7          
Видишь, куколка спит...


Ты травой высокой не порежь себя
И глазёнки светом ярким не порань
Если пёс лохматый на тебя рычит -
Ты не гладь его, пусть лежит, бандит!

А когда поймёшь ты закон простой,
То не плачь, а сквозь слезинки улыбнись
На ладошке капелька росы блестит,
Видишь - маленькое солнышко в ней живёт,
Солнышко живёт

Припев.

Проигрыш:

  Am             Am7           Fmaj7            E               
E|-------0--------------0--------------0--------------0--------|
H|-----1------1-------1------1-------1------1-------0------0---|
G|---2------2---2---0------0---0---2------2---2---1------1---1-|
D|-------------------------------------------------------------|
A|-0-----------------------------------------------------------|
E|----------------3--------------1--------------0--------------|

За окошком ночь погасила свет...
Ты ложись, а я тихонько пропою,
Как придёт к тебе добрый чародей
И тропинкой звёздной поведёт своей 

Он расстелет сны на твоём пути
И раздует в небе радужный огонь
Он незваным гостем постучится в дверь,
Если я усну - ты ему открой,
Ты ему открой

Припев.

Окончание:

Am  Am7  Fmaj7  E   Am                                  
Видишь, куколка спит...
Am7  Fmaj7  E       Am                           
Видишь, куколка спит

Можно проиграть этими же аккордами, поставив каподастр на 1-м ладу.
Наверх