Аккорды Rammstein - Rosenrot

Добавлено: @romashka
Дата добавления: 07 Февраля 2018г.
Рейтинг:
0.0
Просмотров: 285
Транспонировать - +
Intro: C x8 
       G# x8 
       C x8  
       G# x5 
       D# x3

Intro/main rif:
E|---------------------------------------------------------------------|
B|---------------------------------------------------------------------|
G|---------------------------------------------------------------------|
D|---------------------------------------------------------------------|
A|3-3-3-3-3-3-3-3-----------------3-3-3-3-3-3-3-3-----------6-6-6------|
E|----------------4-4-4-4-4-4-4-4-----------------4-4-4-4-4------------|

C                 G#
Sah ein Madchen ein Roslein stehen,
C                    G#   D#
bluhte dort in lichten Hohen, 
   C               G#
so sprach sie ihren Liebsten an, 
C                   G#  D#
ob er es ihr steigen kann.

C                 G#
Sie will es und so ist es fein, 
C                    G#   D#
so war es und so wird es immer sein, 
C                 G#
sie will es und so ist es Brauch, 
C                    G#   D#
was sie will bekommt sie auch! 

Chorus:
E|---------------------------------------------------------------------|
B|---------------------------------------------------------------------|
G|5-5-5-5-5-5-5-5-----------------5-5-5-5-5-5-5-5----------------------|
D|5-5-5-5-5-5-5-5-6-6-6-6-6-6-6-6-5-5-5-5-5-5-5-5-6-6-6-6-6-6-6-6------|
A|3-3-3-3-3-3-3-3-6-6-6-6-6-6-6-6-3-3-3-3-3-3-3-3-6-6-6-6-6-6-6-6------|
E|----------------4-4-4-4-4-4-4-4-----------------4-4-4-4-4-4-4-4------|

C                  G#
Tiefe Brunnen muss man graben, 
C             G#           
wenn man klares Wasser will, 
C        G#    
Rosenrot oh Rosenrot,
C           G#            
Tiefe Wasser sind nicht still!

Main: C x8 
      G# x8 
      C x8  
      G# x5 
      D# x3

C                 G#
Der Jungling steigt den Berg mit Qual.
C                    G#   D#
Die Aussicht ist ihm sehr egal.
C                 G#
Hat das Roslein nur im Sinn.
C                    G#   D#
Bringt es seiner Liebsten hin. 

C                 G#
Sie will es und so ist es fein, 
C                    G#   D#
so war es und so wird es immer sein, 
C                 G#
sie will es und so ist es Brauch, 
C                    G#   D#
was sie will bekommt sie auch!

Chorus:
E|---------------------------------------------------------------------|
B|---------------------------------------------------------------------|
G|5-5-5-5-5-5-5-5-----------------5-5-5-5-5-5-5-5----------------------|
D|5-5-5-5-5-5-5-5-6-6-6-6-6-6-6-6-5-5-5-5-5-5-5-5-6-6-6-6-6-6-6-6------|
A|3-3-3-3-3-3-3-3-6-6-6-6-6-6-6-6-3-3-3-3-3-3-3-3-6-6-6-6-6-6-6-6------|
E|----------------4-4-4-4-4-4-4-4-----------------4-4-4-4-4-4-4-4------|

C                  G#
Tiefe Brunnen muss man graben, 
C             G#           
wenn man klares Wasser will, 
C        G#    
Rosenrot oh Rosenrot,
C           G#            
Tiefe Wasser sind nicht still!

C                  G#
Tiefe Brunnen muss man graben, 
C             G#           
wenn man klares Wasser will, 
C        G#    
Rosenrot oh Rosenrot,
C           G#            
Tiefe Wasser sind nicht still!

Brake: С A# C }x2 C A# 
       C# A# C# }x2 C# A#  
       A# G C }x2 A# G

Main: C x8 
      G# x8 
      C x8  
      G# x5 
      D# x3

C                 G#
An seinen Stiefeln bricht ein Stein, 
C                    G#   D#
Will nicht mehr am Felsen sein, 
C                 G#
Und ein Schrei tut jedem kund, 
C                    G# D#
Beide fallen in den Grund, 

C                 G#
Sie will es und so ist es fein, 
C                    G#   D#
So war es und so wird es immer sein, 
C                 G#
Sie will es und so ist es Brauch, 
C                    G#   D#
Was sie will bekommt sie auch, 

Chorus:
E|---------------------------------------------------------------------|
B|---------------------------------------------------------------------|
G|5-5-5-5-5-5-5-5-----------------5-5-5-5-5-5-5-5----------------------|
D|5-5-5-5-5-5-5-5-6-6-6-6-6-6-6-6-5-5-5-5-5-5-5-5-6-6-6-6-6-6-6-6------|
A|3-3-3-3-3-3-3-3-6-6-6-6-6-6-6-6-3-3-3-3-3-3-3-3-6-6-6-6-6-6-6-6------|
E|----------------4-4-4-4-4-4-4-4-----------------4-4-4-4-4-4-4-4------|

C                  G#
Tiefe Brunnen muss man graben, 
C             G#           
wenn man klares Wasser will, 
C        G#    
Rosenrot oh Rosenrot,
C           G#            
Tiefe Wasser sind nicht still!

C                  G#
Tiefe Brunnen muss man graben, 
C             G#           
wenn man klares Wasser will, 
C        G#    
Rosenrot oh Rosenrot,
C           G#            
Tiefe Wasser sind nicht still!

Brake: С A# C }x2 C A# 
       C# A# C# }x2 C# A#  
       A# G C }x2 A# G
Наверх