Аккорды Rammstein - Stirb nicht vor mir (Dont Die Before I Do)

Добавлено: @romashka
Дата добавления: 06 Февраля 2020г.
Рейтинг:
0.0
Просмотров: 19
Транспонировать - +
Capo 2

  Am              Em              F               Dm       
E|-----5-------5-------5-------5-------5-------5----------------------|
B|---7---7---7---7---7---7---7---7---7---7---7---7---2-3-2---2-3-2----|
G|-7-------7-------6-------6-------7-------7-------4-------4--------7-|
D|--------------------------------------------------------------------|
A|--------------------------------------------------------------------|
E|--------------------------------------------------------------------| 

F           E7          Am
Die Nacht öffnet ihren Schoß
F           E7          Am
Das Kind heißt Einsamkeit
 F          E7          Am
Es ist kalt und regungslos
F           E7          Am
Ich weine leise in die Zeit
 F          E7          Am 
Ich weiß nicht wie du heißt
F           E7          Am
Doch ich weiß, daß es dich gibt
Dm          G           Am
Ich weiß, daß irgendwann
F           E
Irgendwer mich liebt

   Am              Em              F               Dm       
E|-----5-------5-------5-------5-------5-------5----------------------|
B|---7---7---7---7---7---7---7---7---7---7---7---7---2-3-2---2-3-2----|
G|-7-------7-------6-------6-------7-------7-------4-------4--------7-|
D|--------------------------------------------------------------------|
A|--------------------------------------------------------------------|
E|--------------------------------------------------------------------|

F           E7          Am
He comes to me every night
F           E7          Am
No words are left to say
F           E7          Am
With his hands around my neck
F           E7          Am
I close my eyes and pass away
F           E7       Am
I don't know who he is
F           E7        Am
In my dreams he does exist
Dm          G     Am
His passion is a kiss
F           E
And I can not resist

Am          Em
Ich warte hier
F           Dm
Don't die before I do
Am          Em
Ich warte hier
F           G
Stirb nicht vor mir
C           Em
I don't know who you are
F           Dm
I know that you exist (Stirb nicht)
C           Em
Sometimes love seems so far (Ich warte hier)
F           G
Your love I can't dismiss
F           Em
Ich warte hier

F           E7          Am
Alle Häuser sind verschneit
F           E7          Am
Und in den Fenstern Kerzenlicht
F           E7         Am
Dort liegen sie zu zweit
F           E                     
Und ich, ich warte nur auf dich

Am          Em
Ich warte hier
F           Dm
Don't die before I do
Am          Em
Ich warte hier
F           G
Stirb nicht vor mir
C           Em
I don't know who you are
F           Dm
I know that you exist (Stirb  nicht)
C           Em
Sometimes love seems so far (Ich warte hier)
F           G
Your love I can't dismiss
 G          Am
Stirb nicht vor mir 

E7  играется как E только без зажатой 4 струны на втором ладу.
Выглядит так:
E|-----------------|
B|-----------------|
G|-1---------------|
D|-----------------|
A|--2--------------|
E|-----------------|
Бой чес: вниз (полный), вниз(неполн.) сразу удар по нижним и вниз-вверх-вниз-вверх по всем и сразу удар по нижним.
comments powered by Disqus
Наверх