Аккорды Rammstein - Ich will

Добавлено: @romashka
Дата добавления: 22 Марта 2013г.
Рейтинг:
0.0
Просмотров: 305
Транспонировать - +
Main Riff
G|---------------------------------------------------------|
D|-0-0-0-0-0--0-0-0-0-0-0-0-0--0-0-0-0-0--0-0-0-0-0-0-0-0--|
A|-0-0-0-0-0--0-0-0-0-0-0-0-0--0-0-0-0-0--0-0-0-0-0-0-0-0--|
D|-0-0-0-0-0--0-0-0-0-0-0-0-0--0-0-0-0-0--0-0-0-0-0-0-0-0--|

G|---------------------------------------------------------|
D|-0-0-0-0-0--0-0-0-0-0-0-0-0--0-0-0-0-0--5-5-5-3-3-3-1-1--|
A|-0-0-0-0-0--0-0-0-0-0-0-0-0--0-0-0-0-0--5-5-5-3-3-3-1-1--|
D|-0-0-0-0-0--0-0-0-0-0-0-0-0--0-0-0-0-0--5-5-5-3-3-3-1-1--|

Another Riff
G|-----------|
D|-0-0-0-0-0-|
A|-0-0-0-0-0-|
D|-0-0-0-0-0-|


Chorus (играть 4 раза)
G|--------------------------|
D|-0----8-5-7--0----8-10-7--|
A|-0----8-5-7--0----8-10-7--|
D|-0----8-5-7--0----8-10-7--|

Без Distortion:

G|-----------------------------------|
D|-----0-------0-------0-------0-----|
A|---5---5---5---0---5---5---5---0---|
D|-0-------0-------0-------0-------8-|

G|---------------------------------|
D|---8-------8-------8-------------|
A|-8---8---8---8---8---8---8---7---|
E|-------8-------8-------8---7-----|

G|-----------------------------------|
D|-----5-------5-------5-------5-----|
A|---5---5---5---5---5---5---5---5---|
D|-5-------5-------5-------5-------7-|

G|---------------------------------|
D|---7-------7-------7-------7-----|
A|-7---7---7---7---7---7---7---7---|
E|-------7-------7-------7-------7-|

G|------------------------------------|
D|-----0-------0-------0-------0------|
A|---5---5---5---0---5---5---5---0----|
D|-0-------0-------0-------0-------8--|

G|--------------------------------|
D|--8-------8-------8-------------|
A|8---8---8---8---8---8---8---7---|
E|------8-------8-------8---7-----|

G|------------------------------------|
D|-----5-------5-------5-------5------|
A|---5---5---5---5---5---5---5---5----|
D|-5-------5-------5-------5-------7--|

G|--------------------------------|
D|--7-------7-------7-------7-----|
A|7---7---7---7---7---7---7---7---|
E|------7-------7-------7-------7-|
Наверх