Аккорды Rammstein - Wiener Blut

Добавлено: @romashka
Дата добавления: 29 Марта 2014г.
Рейтинг:
0.0
Просмотров: 969
Транспонировать - +
Intro:

  E|-------------------------|
  B|-------------------------|
  G|-------------------------|
  D|--3\2-2--3\2-2---3\23\2--|
  A|--3\2-2--3\2-2---3\23\2--|
  D|--3\2-2--3\2-2---3\23\2--|

Wilkommen...in der dunkelheit...

  E|----------------------------------------------|
  B|----------------------------------------------|
  G|----------------------------------------------|
  D|--3\2-2--3\2-2---3\23\2--3\2-2--3\2-2--3\2-3-5|
  A|--3\2-2--3\2-2---3\23\2--3\2-2--3\2-2--3\2-3-5|
  D|--3\2-2--3\2-2---3\23\2--3\2-2--3\2-2--3\2-3-5|

Pre-Chorus:

  E|---------------------------|
  B|---------------------------|
  G|---------------------------|
  D|--3\2-2--3\2-2---3\23\2-0~-|
  A|--3\2-2--3\2-2---3\23\2-0~-|
  D|--3\2-2--3\2-2---3\23\2-0~-|

  E|---------------------------|
  B|---------------------------|
  G|---------------------------|
  D|--3\2-2--3\2-2---3\23\2-3~-|
  A|--3\2-2--3\2-2---3\23\2-3~-|
  D|--3\2-2--3\2-2---3\23\2-3~-|

Bridge:

  E|-----------------------------|
  B|-----------------------------|
  G|-----------------------------|
  D|--0~~~-----3~~~-----2~~~-----|
  A|--0~~~-----3~~~-----2~~~-----|
  D|--0~~~-----3~~~-----2~~~-----|

  E|-----------------------------|
  B|-----------------------------|
  G|-----------------------------|
  D|-----------------------------|
  A|-----------------------------|
  D|--0--0--0--0--0-0------------|
P.M.~~~~~~~~~~~~~~~~~
Наверх