Аккорды Распад - Воск

Добавлено: @romashka
Дата добавления: 27 Сентября 2019г.
Рейтинг:
0.0
Просмотров: 17
Транспонировать - +
Куплеты:
1|----0-0----0-0----0-0----0-0-
2|----1-1----1-1----0-0----1-1-
3|----2-2----0-0----0-0----2-2-
4|-----------------------------
5|-0------3------2------0------
6|-----------------------------

Проигрыш:
1|----0---0---0---------0---0---0----------------0-----1---
2|----1---1---0---------1---1---0----------------1-----1---
3|----2---0---0---------2---0---0----------------2-----2---
4|---------------------------------------------------------
5|--0---3---2----0--0-----3---2---0---0----0--0----0-----0-
6|---------------------------------------------------------

Текст песни:

Кто-то умер и гниёт,
А кого это ебёт?!
Кто-то умер и гниёт,
А кого это ебёт?!

Кто-то ходит без штанов,
Кровь течёт из глаз попов!
Кто-то ходит без штанов,
Кровь течёт из глаз попов!

Кто здесь срёт, а кто здесь дышит,
Всем плевать, себя не слышат.
Кто здесь срёт, а кто здесь дышит,
Всем плевать, себя не слышат.

Изо рта фонтанит воск,
Член в штанах, но где мой мозг?!
Шишел-мышел, взял да вышел,
Вот ответ на весь вопрос.

Тёрся жопой об наждачку,
В новостях хвалили хуй,
А потом пизду в придачу,
Землю стадом нашпигуй!

Шёл ко дну фрегат у мыса,
Первыми сбегали крысы,
Что же думать, делать нам,
Если крыса - капитан?

Танцы с бубном у костра,
Каннибалы, каннибалы.
Карусельная петля,
Им всё мало, им всё мало.
comments powered by Disqus
Наверх