Аккорды Ray LaMontagne - In My Own Way

Добавлено: @romashka
Дата добавления: 29 Января 2021г.
Рейтинг:
0.0
Просмотров: 48
Транспонировать - +
Каподастр на 1-м ладу

Вступление
C   Gm   x2


C
Lock the door, Draw the shades
Gm
Close my eyes, I'm miles away...
Bb               F          C
I'll spend the day, In my own way...
C
Count the hours, Mark the days,
Gm
Underneath it all, The rising swirling, Of the waves...
Bb                F         C
I'll spend the day, In my own way...


Соло
Gm   C   x2
C   Gm   x2

C
All the plans, That were made,
Gm
Let them die! Let them fade...
Bb                F         C
I'll spend the day, In my own way...
Am            C      F          Dm
Please understand... I'm only human!

 
C

C
After all, Said and done...
Gm
Only here a moment and, The moment's gone...
Bb                F         C
I'll spend the day, In my own way...


Соло

Gm   C   x2
Am            C      F          Dm
Please understand... I'm only human!

Bb           F                   G
At times I fail, At times at fault...

Am                C
Don't break your back,
F            Dm  Bb               F
Tryin' to carry,    Weight of the world
                  G
Can't please them all!

C           Gm7
Ahhhhhhhhh, Ohhhhhh
C           Gm7
Ahhhhhhhhh, Ohhhhhh


C
Lock the door, Draw the shades,
Gm
Close my eyes, I'm miles away...
Bb                F         C
I'll spend the day, In my own way...
Bb                F         C
I'll spend the day, In my own way...
Bb                F         C
I'll spend the day, In my own way...
C



Каподастр на 1-м ладу
Вступление и в куплете играется вариация
E||--9-----9---||---6-----6---||--------------------------||
H||---9-----9--||----7-----7--||--------6h7-6----6h7-6----||
G||------------||-------------||---6-8--------6--------6--||


Соло

E||--4-6--------4--------------||--4-6--------4--------------||--4-6--------4------------||---------------------------------||
H||-------7-4--7---7-4---------||-------7-4--7---7-4---------||-------7-4--7---7-4-------||---------------------------------||
G||---------------------6-4----||---------------------6-4----||---------------------6-4--||---6-h8-6-----------6-h8-6-------||
D||----------------------------||----------------------------||--------------------------||-----------9-6--6-9---------9-6--||
A||----------------------------||----------------------------||--------------------------||---------------------------------||
E||----------------------------||----------------------------||--------------------------||---------------------------------||

Вариация вступления слышная в куплете как сопровождение.
Оригинальная тональность C#, то есть написанные аккорды играть на тон выше (С# G#m и т.д.) Соло играть так как написано.
Наверх