Аккорды Red Hot Chili Peppers - Can't Stop

Добавлено: @romashka
Дата добавления: 16 Декабря 2018г.
Рейтинг:
0.0
Просмотров: 30
Транспонировать - +
Riff A:
e|------------------------------------------------------------|
B|------------------------------------------------------------|
G|------7--9---------7--9------------7--9---------7--9--------|
D|--------------------------------0--------0-0-0--------0-0-0-|
A|-7-7--------7-7-7--------7-7-7------------------------------|
E|------------------------------------------------------------|                                                                              

e|---------------------------------------------------------|
B|---------------------------------------------------------|
G|----7--9---------7--9------------7--9--------7--9--------|
D|---------------------------------------------------------| x4
A|---------------------------------------------------------|
E|-7--------7-7-7--------7-7-7--8-------8-8-8--------8-8-8-|
                                                                          
Riff B:
e|------------------------------------------------------------|
B|------------------------------------------------------------|
G|------7--9---------7--9------------7--9---------7--9--------|
D|--------------------------------0--------0-0-0--------0-0-0-|
A|-7-7--------7-7-7--------7-7-7------------------------------|
E|------------------------------------------------------------|
                                                                              
e|--------------------------------7--7--7--7-|
B|--------------------------------8--8--8--8-|
G|----7--9---------7--9-----------9--9--9--9-|
D|-------------------------------------------|
A|-------------------------------------------|
E|-7--------7-7-7--------7-7-7---------------|

 Em   
Can't stop adiccted to the shin dig  
 D   
Cop top he says I'm gonna win big  
 Bm   
Choose not a life of imitation  
 C   
distant cousin to the reservation  
 
 Em   
Defunkt the pistol that you pay for  
 D   
this punk the feeling that you stay for  
 Bm   
In time I want to be your best friend  
 C   
Eastside love is living on the westend  
 
 Em   
Knock out but boy you better come to  
 D   
don't die yo know the truth is some do  
 Bm   
go write your message on the pavement  
 C   
burn so bright I wonder what the wave meant  
 
 Em   
Whit heat is screamin' out the jungle  
 D   
complete the motion if you stumble  
 Bm   
go ask the dust for any answers  
 C   
come back strong with 50 belly dancers  

Chorus:  
 G   
The world I love  
 D   
The tears I droped  
 Bm   C   
to be part of the wave can't stop  
 G   D   Bm   C   
ever wonder if it's all for you  
 G   
The world I love  
 D   
The trains I hop  
 Bm   C   
to be part of the wave can't stop  
 G   D   Bm   C   
come and tell me when it's time to  
 Em   
Sweetheart is bleeding in the snowcone  
 D   
so smart she's leading me to ozone  
 Bm   
music the great comunicator  
 C   
use two sticks to make it in the nature  
 
 Em   
I'l get you into penetration  
 D   
the gender of a generation  
 Bm   
the birth of every other nation  
 C   
worth your weight the gold of meditation  
 
 Em   
The chapter's going to be a close one  
 D   
smoke rings I know you go to blow one  
 Bm   
all on the spaceship peserviering  
 C   
use may hands for everything but steering  
 
 Em   
Can't stop the spirits when they need you  
 D   
mop tops are happy when they feed you  
 Bm   
J.Butterfly is in the treetop  
 C   
birds that blowing the meaning into beetop  

Chorus:  
 G   
The world I love  
 D   
The tears I droped  
 Bm   C   
to be part of the wave can't stop  
 G   D   Bm   C   
ever wonder if it's all for you  
 G   
The world I love  
 D   
The trains I hop  
 Bm   C   
to be part of the wave can't stop  
 G   D   Bm   C   
come and tell me when it's time to  
 
 Em   D 
Wait a minute on passing out 
 Bm   C   
win or lose just like you  
 Em   D   
farm on shocking in anything 
 Bm   C   
I ever knew how 'bout you  
 Em   D   Bm   C   
tell more reasons why I need 
 Bm   C   
someboday new just like you  
 Em   D   Bm   C   
farm on shocking in anything 
 Bm   C   
I ever knew right on cue  
 
Em D Bm C (+Solo-Guitar)  

 Em   
Can't stop adiccted to the shin dig  
 D   
Cop top he says I'm gonna win big  
 Bm   
Choose not a life of imitation  
 C   
distant cousin to the reservation  
 
 Em   
Defunkt the pistol that you pay for  
 D   
this punk the feeling that you stay for  
 Bm   
In time I want to be your best friend  
 C   
Eastside love is living on the westend  
 
 Em   
Knock out but boy you better come to  
 D   
don't die yo know the truth is some do  
 Bm   
go write your message on the pavement  
 C   
burn so bright I wonder what the wave meant  
 
 Em   
kick start the golden generator  
 D   
sweet talk but don't imitate date her  
 Bm   
can't stop the gods from engeniring  
 C   
feel no need for any interfiring  
 
 Em   
your image in a dictionary  
 D   
this life is more than ordenary  
 Bm   
can I get 2 maybe even 3 of these  
 C   
come from the space to teach you of the pliedis  
 
N/С
can't stop the spirit when they need you  
N/С
this life is more than just a read thru
comments powered by Disqus
Наверх