Аккорды Red Hot Chili Peppers - Californication

Добавлено: @romashka
Дата добавления: 19 Августа 2022г.
Рейтинг:
0.0
Просмотров: 31
Транспонировать - +
Main riff: 
 
   Frusciante:  | Flea:         | Frusciante:  | Flea:    
E|--------------|---------------|--------------|--------| 
B|--------0--1--|---------------|--------------|--------| 
G|--------------|---------------|--------0--2--|--------| 
D|-----2--------|--2--0>2>0-----|--------------|--2--0--| 
A|--0-----------|------------3--|-----3--------|--------| 
E|--------------|---------------|--1-----------|--------| 
 
 
 
[Intro]: 
 
'Main riff'  x2 
 
 
 
[Verse 1]: 
 
'Main riff'  x2 
 
 Am                               F 
Psychic spies from China try to steal your mind's elation 
     Am                                F 
And little girls from Sweden dream of silver screen quotation 
    C                  G                   F       Dm 
And if you want these kind of dreams it's Californication 
E|--------------|--------------|--------------------1--| 
B|--------5-----|--------------|--------------------3--| 
G|--------------|--------4-----|--------2--------2--2--| 
D|-----5-----5--|--------------|--------------0-----0--| 
A|--3-----------|-----5-----5--|-----3-----3-----------| 
E|--------------|--3-----------|--1--------------------| 
 
 
 
[Verse 2]: 
 
'Main riff'  x2 
 
            Am                            F 
It's the... edge of the world and all of Western civilization 
    Am                                      F 
The sun may rise in the East at least it's settled in a final location 
      C               G               F       Dm 
It's understood that Hollywood sells Californication 
 
 
 
[Bridge a:] 
 
 Am Fmaj7 
 Am Fmaj7 
 Am                           Fmaj7 
Pay your surgeon very well to break the spell of aging 
  Am                                 Fmaj7 
Celebrity skin, is this your chin, or is that war you're waging? 
Am               Fmaj7 
   First born unicorn 
Am               Fmaj7 
   Hardcore soft porn 
 
 
 
[Chorus]: 
 
  C           G   Dm     Am 
Dream of Californication 
  C           G   Dm 
Dream of Californication 
  C           G   Dm     Am 
Dream of Californication 
  C           G   Dm 
Dream of Californication 
 
 
 
[Verse 3]: 
 
'Main riff'  x2 
 
 Am                                              F 
Marry me, girl, be my fairy to the world, be my very own constellation 
   Am                                       F 
A teenage bride with a baby inside getting high on information 
     C                    G               F       Dm 
And buy me a star on the boulevard, it's Californication 
 
 
 
[Verse 4]: 
 
'Main riff'  x2 
 
 Am                                       F 
Space may be the final frontier but it's made in a Hollywood basement 
 Am                                       F 
Cobain can you hear the spheres singing songs off 'Station to Station'? 
    C               G              F       Dm 
And Alderaan's not far away, it's Californication 
 
 
 
[Bridge b:] 
 
 Am Fmaj7 
 Am Fmaj7 
 Am                                    Fmaj7 
Born and raised by those who praise control of population 
Am                           Fmaj7 
Everybody's been there and I don't mean on vacation 
Am               Fmaj7 
   First born unicorn 
Am               Fmaj7 
   Hardcore soft porn 
 
 
 
[Chorus]: 
 
  C           G   Dm     Am 
Dream of Californication 
  C           G   Dm 
Dream of Californication 
  C           G   Dm     Am 
Dream of Californication 
  C           G   Dm 
Dream of Californication 
 
 
 
 
[Guitar solo]: 
 
  F#m(IX)     F#sus2(IX)  D(X) 
E|----------9------9------5---| 
B|---10-----10-----9------7---| 
G|---11-----11-----11-----7---| 
D|---11-----11-----11-----7---|  x2 
A|----------------------------| 
E|----------------------------| 
 
Bm  D  A  E 
 
  F#m(IX)       D 
E|--------9-----14--| 
B|--10----10----15--| 
G|--11----11----14--| 
D|--11----11--------| 
A|------------------| 
E|------------------| 
 
 
  F#m(IX)       E   D 
E|--------9-----4---2--| 
B|--10----10----5---3--| 
G|--11----11----4---2--| 
D|--11----11-----------| 
A|---------------------| 
E|---------------------| 
 
 
F#m(IX)  F#sus2(IX)  D(X)  A   E 
Bm   D   A   E 
Bm   D   A   E 
 
 
 
[Verse 5]: 
 
'Main riff'  x2 
 
    Am                                        F 
Destruction leads to a very rough road but it also breeds creation 
     Am                                          F 
And earthquakes are to a girl's guitar, they're just another good vibration 
     C                    G                   F       Dm 
And tidal waves couldn't save the world from Californication 
 
 
 
[Bridge c:] 
 
 Am Fmaj7 
 Am Fmaj7 
 Am                           Fmaj7 
Pay your surgeon very well to break the spell of aging 
 Am                                         Fmaj7 
Sicker than the rest, there is no test, but this is what you're craving? 
Am               Fmaj7 
   First born unicorn 
Am               Fmaj7 
   Hardcore soft porn 
 
 
 
[Chorus]: 
 
  C           G   Dm     Am 
Dream of Californication 
  C           G   Dm 
Dream of Californication 
  C           G   Dm     Am 
Dream of Californication 
  C           G   Dm 
Dream of Californication 
Наверх