Аккорды Рибс - Разные города

Добавлено: @romashka
Дата добавления: 30 Августа 2020г.
Рейтинг:
0.0
Просмотров: 28
Транспонировать - +
Вступление:
[------------------------------------2--------------------------------------------------]
[----2---2---5---3---2---2---2---5-------2---2---2-------2---2-------2---2---2---2---2--]
[--2---2---2---2---2---2---2---2---2---2------------------------------------------------]
[------------------------------------------4---4---2---2---2---2---0---0---0---0---0----]
[---------------------------------------------------------------------------------------]
[---------------------------------------------------------------------------------------] X2
Куплет:
F#m          A                               C#m          B    A
В этот вечер тёплым солнцем на стекле я нарисую тебе закат, (у-у-у).
F#m           A
Бесконечность мы ожидали нашей встречи,
        C#m         B
но поезда нас завезли
A
в разные города.
Припев:                           Гитарное соло:
F#m  A       C#m  B  A      [-------------------------------------------------------------]              
     В разных городах (x6)    [--2 /2-------2 /2-------2 /2-------2 /2---5--3--2---5555-] 
                            [--------2---4-------2---4-------2---4-----------------2------]                            
                            [-------------------------------------------------------------]
                            [-------------------------------------------------------------]
                            [-------------------------------------------------------------]

[-----------------------------------------------------------------------------]
[--2 /2-------2 /2---5----2 /2-------2 /2---5---2 /2-------2 /2---5555--]
[--------2---4-----------2--------2---4-----------2-------2---4-------2-------]
[-----------------------------------------------------------------------------]
[-----------------------------------------------------------------------------]
[-----------------------------------------------------------------------------]


Куплет:                            
F#m           A                                C#m            B        A
В этот вечер: танцы, слёзы, алкоголь, и кто то с нами лишь до утра, (у-у-у).
F#m            A                               C#m            B  A        
Красной лентой мы завязали нашу дружбу, и лишь она напомнит нам, что мы в разных городах.

Припев:                           Гитарное соло:
F#m  A       C#m  B  A           [-------------------------------------------------------------]              
     В разных городах (x6)         [--2 /2-------2 /2-------2 /2-------2 /2---5--3--2---5555-] 
                                 [--------2---4-------2---4-------2---4-----------------2------]                            
                                 [-------------------------------------------------------------]
                                 [-------------------------------------------------------------]
                                 [-------------------------------------------------------------]

[-----------------------------------------------------------------------------]
[--2 /2-------2 /2---5----2 /2-------2 /2---5---2 /2-------2 /2---5555--]
[--------2---4-----------2--------2---4-----------2-------2---4-------2-------]
[-----------------------------------------------------------------------------]
[-----------------------------------------------------------------------------]
[-----------------------------------------------------------------------------]

Под мелодию, которая указана во вступлении можно петь куплеты. Гитарное соло в конце повторяется еще раз без вокала.
Наверх