Аккорды RSAC - Этот мир

Добавлено: @romashka
Дата добавления: 28 Января 2019г.
Рейтинг:
0.0
Просмотров: 18
Транспонировать - +
Intro:
  G
E|-3---3---3---3---3---3---3---3---3---3---3---3---3---3---3---3--|
A|----------------------------------------------------------------|
D|---0---0---0---0---0---0---0-------0---0---0---0---0---0---0----|
G|-------------------------------0-------------------------------0|
B|----------------------------------------------------------------|
e|----------------------------------------------------------------|

Verse 1:
  G                               Em                              C
E|-3---3---3---3---3---3---3---3---0---0---0---0---0---0---0---0----------------------------------|
A|-----------------------------------------------------------------3---3---3---3---3---3---3---3--|
D|---0---0---0---0---0---0---0---0---2---2---2---2---2---2---2---2--------------------------------|
G|-------------------------------------------------------------------0---0---0---0---0---0---0---0|
B|------------------------------------------------------------------------------------------------|
e|------------------------------------------------------------------------------------------------|

  D
E|---------------------------------|
A|---------------------------------|
D|-0---0---0---0---0---0---0---0---|
G|---2---2---2---2---2---2---2---2-|
B|---------------------------------|
e|---------------------------------|

Мы проебали сотню дней на двоих с тобой,
Открывал тебе все двери, охуеть я был герой.
Я с тобой едва не помер и вот это будет номер,
Если дальше так продолжим, то тогда убьем кого-то.

Целовал тебя я столько сколько звезд на небе ночью,
Отвечала мне укусами мне больно было точно.
Я разбил тебе лицо по твоей нежнейшей просьбе,
Очень странно что под ногти мы не забивали гвозди.

Chorus:
  C                               D                               G 
E|-----------------------------------------------------------------3---3---3---3---3---3---3---3--|
A|-3---3---3---3---3---3---3---3------------------------------------------------------------------|
D|---------------------------------0---0---0---0---0---0---0---0-----0---0---0---0---0---0---0---0|
G|---0---0---0---0---0---0---0---0---2---2---2---2---2---2---2---2--------------------------------|
B|------------------------------------------------------------------------------------------------|
e|------------------------------------------------------------------------------------------------|

  Em
E|-0---0---0---0---0---0---0---0---|
A|---------------------------------|
D|---2---2---2---2---2---2---2---2-|
G|---------------------------------|
B|---------------------------------|
e|---------------------------------|

Этот мир был послан нами нахуй,
Этот мир послали мы в пизду.

Verse 2:
G
Мы как конченные черти разъебали все кровати,
Em
Мы бежали дальше чем находили все проблемы.
C
И не страшно даже время и не страшен даже голод,
D
Лишь бы были мы вдвоем лишь бы только ты дышала.

G
Я смотрю тебе в глаза в косоглазые твои,
Em
Понимаем оба точно вся хуйня тут по любви.
C
Проживем на зло всем долго и кремируемся парой,
D                  B7
И развеет нас с тобой где-то прям под барнаулом.

Chorus:
C                         D
Этот мир был послан нами нахуй,
G                         Em
Этот мир послали мы в пизду.
C                         D
Этот мир был послан нами нахуй,
G                         Em
Этот мир послали мы в пизду.

C                         D
Этот мир был послан нами нахуй,
G                         Em
Этот мир послали мы в пизду.
C                         D
Этот мир был послан нами нахуй,
G                         Em
Этот мир послали мы в пизду.

Outro: G Em C D      
comments powered by Disqus
Наверх