Аккорды Руки вверх! - Замужем

Добавлено: @romashka
Дата добавления: 26 Апреля 2021г.
Рейтинг:
0.0
Просмотров: 91
Транспонировать - +
Вступление x4
Dm A#

e|-----1-1-0-0---|-----1-1-0-0---|-----1-1-0-0---|-----0-0-1-1-3-3-|
B|-3-3---------1-|-3-3---------1-|-3-3---------1-|-3-3-------------|
G|---------------|---------------|---------------|-----------------|
D|---------------|---------------|---------------|-----------------|
A|---------------|---------------|---------------|-----------------|
E|---------------|---------------|---------------|-----------------|

 Dm
Снова одна ночью без сна,
Завтра с утра ты выйдешь замуж.
Так мало лет, а счастья нет,
Скоро рассвет, а ты рыдаешь.
   Dm            A#
В платье стоишь свадебном ты,
C        Am
Ты так давно о нем мечтала,
Dm            A#
Но под фатой слезы рекой,
C      Am
Ты не моей женою стала.

Припев
     Dm
  Теперь ты замужем
           A#
  И тебе не нужен я уже,
                 Dm
  А моя девчонка замужем
                    A#
  И теперь не нужен я уже,
  Я такой не нужен

Проигрыш x2
Dm A#

e|-----1-1-0-0---|-----1-1-0-0---|-----1-1-0-0---|-----0-0-1-1-3-3-|
B|-3-3---------1-|-3-3---------1-|-3-3---------1-|-3-3-------------|
G|---------------|---------------|---------------|-----------------|
D|---------------|---------------|---------------|-----------------|
A|---------------|---------------|---------------|-----------------|
E|---------------|---------------|---------------|-----------------|

 Dm
Бросить бы все и убежать,
Но на руке кольцо сверкает.
Ты не могла так долго ждать,
И ты в чужих объятьях таешь.
   Dm            A#
В платье стоишь свадебном ты,
C        Am
Ты так давно о нем мечтала,
Dm            A#
Но под фатой слезы рекой,
C      Am
Ты не моей женою стала.

Припев x2
     Dm
  Теперь ты замужем
           A#
  И тебе не нужен я уже,
                 Dm
  А моя девчонка замужем
                    A#
  И теперь не нужен я уже,
  Я такой не нужен

Проигрыш x4
Dm A#

e|-----1-1-0-0---|-----1-1-0-0---|-----1-1-0-0---|-----0-0-1-1-3-3-|
B|-3-3---------1-|-3-3---------1-|-3-3---------1-|-3-3-------------|
G|---------------|---------------|---------------|-----------------|
D|---------------|---------------|---------------|-----------------|
A|---------------|---------------|---------------|-----------------|
E|---------------|---------------|---------------|-----------------|

Припев x2
     Dm
  Теперь ты замужем
           A#
  И тебе не нужен я уже,
                 Dm
  А моя девчонка замужем
                    A#
  И теперь не нужен я уже,
  Я такой не нужен

Проигрыш x4
Dm A#

e|-----1-1-0-0---|-----1-1-0-0---|-----1-1-0-0---|-----0-0-1-1-3-3-|
B|-3-3---------1-|-3-3---------1-|-3-3---------1-|-3-3-------------|
G|---------------|---------------|---------------|-----------------|
D|---------------|---------------|---------------|-----------------|
A|---------------|---------------|---------------|-----------------|
E|---------------|---------------|---------------|-----------------|
Наверх