Аккорды Руки вверх! - Лишь о тебе мечтая

Добавлено: @romashka
Дата добавления: 23 Марта 2023г.
Рейтинг:
0.0
Просмотров: 395
[Вступление]:
  Am          Em          Dm          Em
e|-----------|-----------|-----------|-----------|
B|---1-0-1---|---0---0---|---------0-|-1--3--0---|
G|-----------|-----2-----|-------2---|-----------|
D|-2-------2-|-0-------0-|-----------|---------3-|
A|-----------|-----------|-3---------|-----------|
E|-----------|-----------|-----------|-----------|

  Am          Em          Dm          Em
e|-----------|-----------|-----------|-----------|
B|---1-0-1---|---0---0---|---------0-|-1-3--5--6-|
G|-----------|-----2-----|---2---2---|-----------|
D|-2-------2-|-0-------0-|-----------|-----------|
A|-----------|-----------|-3---------|-----------|
E|-----------|-----------|-----------|-----------|

  Am          Em          Dm          Em
e|---8-7-8---|---7-5-7---|---5---5-7-|-8--10-7---|
B|-5-------5-|-----------|-----------|---------6-|
G|-----------|-7-------7-|-5---------|-----------|
D|-----------|-----------|-----------|-----------|
A|-----------|-----------|-----------|-----------|
E|-----------|-----------|-----------|-----------|

  Am          Em          Dm          Em
e|---8-7-8---|---7-5-7---|-------5-7-|-8-10-7------|
B|-5-------5-|-----------|-----------|-------------|
G|-----------|-7-------7-|-5---------|--------8-10-|
D|-----------|-----------|-----------|-------------|
A|-----------|-----------|-----------|-------------|
E|-----------|-----------|-----------|-------------|

[Куплет]:
       Am         Em
Мягкий шёлк простыней
      Dm                Em
Мне напомнит нежность руки твоей,
        Am     Em
Мне не спится опять,
      Dm          Em
В эту ночь могу я лишь мечтать.

[Проигрыш]:
  Am   Em   Dm       Em          Am
А-а, а-а, а-а, ла-ла-ла-ла-ла-ла-ла,
Am          Em              Dm        Em
Ла-ла-ла-ла-ла, ла-ла-ла-ла-ла, ла-ла-ла-ла-ла.

[Припев]:
Am              Dm
Я без тебя не живу, не пою,
G              Am
Лишь о тебе мечтая,
Am                  Dm
Только сейчас начал я понимать,
G                  C Em
Как мне тебя не хватает.
Am               Dm
Я не хочу, чтобы видела ты,
G               Am
Как я тихонько плачу,
Am                Dm
Губы твои вытрут слёзы мои,
G          C Em
Я не могу иначе.

[Проигрыш]:
  Am   Em   Dm       Em          Am
А-а, а-а, а-а, ла-ла-ла-ла-ла-ла-ла,
Am          Em              Dm  Em
Ла-ла-ла-ла-ла, ла-ла-ла-ла-ла.

[Куплет]:
       Am        Em
Что же ты, мой малыш,
      Dm          Em
Всё никак мне это не простишь
        Am    Em
То, что я далеко,
      Dm           Em
Мы не виделись с тобой давно.

[Проигрыш]:
  Am   Em   Dm       Em          Am
А-а, а-а, а-а, ла-ла-ла-ла-ла-ла-ла,
Am          Em              Dm        Em
Ла-ла-ла-ла-ла, ла-ла-ла-ла-ла, ла-ла-ла-ла-ла.

[Припев]:
Am              Dm
Я без тебя не живу, не пою,
G              Am
Лишь о тебе мечтая,
Am                  Dm
Только сейчас начал я понимать,
G                  C Em
Как мне тебя не хватает.
Am               Dm
Я не хочу, чтобы видела ты,
G               Am
Как я тихонько плачу,
Am                Dm
Губы твои вытрут слёзы мои,
G          C Em
Я не могу иначе.

/* Модуляция на полутон вверх */

[Припев]:
A#m             D#m
Я без тебя не живу, не пою,
G#             A#m
Лишь о тебе мечтая,
A#m                 D#m
Только сейчас начал я понимать,
G#                 C# Fm
Как мне тебя не хватает.
A#m              D#m
Я не хочу, чтобы видела ты,
G#              A#m
Как я тихонько плачу,
A#m               D#m
Губы твои вытрут слёзы мои,
G#         C# Fm
Я не могу иначе.

[Кода]:
  A#m  Fm   D#m      Fm          A#m
А-а, а-а, а-а, ла-ла-ла-ла-ла-ла-ла,
A#m         Fm              D#m       Fm          A#m Fm
Ла-ла-ла-ла-ла, ла-ла-ла-ла-ла, ла-ла-ла-ла-ла-ла-ла.
  D#m      Fm          A#m
А-а, ла-ла-ла-ла-ла-ла-ла,
A#m         Fm              D#m       Fm          A#m
Ла-ла-ла-ла-ла, ла-ла-ла-ла-ла, ла-ла-ла-ла-ла-ла-ла.
Но если и музыка нас оставит, что будет тогда с нашим миром? (Гоголь)
Мы стремимся к созданию контента, соответствующего всем нормам законодательства и уважающего интеллектуальную собственность. Мы также придаем большое значение тому, чтобы не задеть никого и не оскорбить чьи-либо чувства. Если у вас есть вопросы или претензии по размещенному материалу, пожалуйста, сообщите нам об этом на указанный адрес электронной почты: [email protected].
Шрифт
-
0
+
Прокрутка
-
0
+
Стоп
Наверх