Аккорды RY X - Beacon

Добавлено: @romashka
Дата добавления: 01 Февраля 2019г.
Рейтинг:
0.0
Просмотров: 62
Транспонировать - +
Intro:
                 A        G
e|------5-----------------3--------|
B|------3--------2-----------------|
G|------4--------2-----------------|
D|------4--------2-----------------|
A|------2-----------------2--------|
E|------2-----------------3--------| 4x

        G
e|------------------------------------------------------------------------------|
B|------------0-----------0-----------0-----------0-----------0-----------0-----|
G|--------0-------0---0-------0---0-------0---0-------0---0-------0---0-------0-|
D|----------0---0-------0---0-------0---0-------0---0-------0---0-------0---0---|
A|------------------------------------------------------------------------------|
E|------3-----------3-----------3-----------3-----------3-----------3-----------|

        D                       Bm          A
e|------------------------------------------------------|
B|------------0-----------0-----------3-----------2-----|
G|--------2-------0---2-------0---4-------2---2-------2-|
D|--------------0-----------0-----------2-----------2---|
A|----------0-----------0-----------2-----------0-------|
E|------2-----------2-----------2-----------2-----------|

        G
e|------------------------------------------------------------------------------------------------------|
B|------------0-----------0-----------0-----------0-----------0-----------0-----------0-----------0-----|
G|--------0-------0---0-------0---0-------0---0-------0---0-------0---0-------0---0-------0---0-------0-|
D|----------0---0-------0---0-------0---0-------0---0-------0---0-------0---0-------0---0-------0---0---|
A|------------------------------------------------------------------------------------------------------|
E|------3-----------3-----------3-----------3-----------3-----------3-----------3-----------3-----------|

Verse:
        My                                              Mind
        G                                               D
e|------------------------------------------------------------------------------|
B|------------0-----------0-----------0-----------0-----------0-----------0-----|
G|--------0-------0---0-------0---0-------0---0-------0---2-------0---2-------0-|
D|----------0---0-------0---0-------0---0-------0---0-----------0-----------0---|
A|----------------------------------------------------------0-----------0-------|
E|------3-----------3-----------3-----------3-----------2-----------2-----------|

        falls     into your     Mind
        Bm          A           G
e|------------------------------------------------------------------------------------------------------|
B|------------3-----------2-----------0-----------0-----------0-----------0-----------0-----------0-----|
G|--------4-------2---2-------2---0-------0---0-------0---0-------0---0-------0---0-------0---0-------0-|
D|--------------2-----------2-------0---0-------0---0-------0---0-------0---0-------0---0-------0---0---|
A|----------2-----------0-------------------------------------------------------------------------------|
E|------2-----------2-----------3-----------3-----------3-----------3-----------3-----------3-----------|

        Mind                    falls    into     your  mind's       
        D                       Bm          A           F#m
e|------------------------------------------------------------------|
B|------------0-----------0-----------3-----------2-----------1-----|
G|--------2-------0---2-------0---4-------2---2-------2---1-------1-|
D|--------------0-----------0-----------2-----------2-----------4---|
A|----------0-----------0-----------2-----------0-----------4-------|
E|------2-----------2-----------2-----------2-----------1-----------|

        eye.
        G
e|------------------------------------------------------------------------------|
B|------------0-----------0-----------0-----------0-----------0-----------0-----|
G|--------0-------0---0-------0---0-------0---0-------0---0-------0---0-------0-|
D|----------0---0-------0---0-------0---0-------0---0-------0---0-------0---0---|
A|------------------------------------------------------------------------------|
E|------3-----------3-----------3-----------3-----------3-----------3-----------|

        Fall      into        
        Bm          A           
e|------------------------------|
B|------------3-----------2-----|
G|--------4-------2---2-------2-|
D|--------------2-----------2---|
A|----------2-----------0-------|
E|------2-----------2-----------|
       
        Divine
       G
e|------------------------------------------------------------------------------------------------------|
B|------------0-----------0-----------0-----------0-----------0-----------0-----------0-----------0-----|
G|--------0-------0---0-------0---0-------0---0-------0---0-------0---0-------0---0-------0---0-------0-|
D|----------0---0-------0---0-------0---0-------0---0-------0---0-------0---0-------0---0-------0---0---|
A|------------------------------------------------------------------------------------------------------|
E|------3-----------3-----------3-----------3-----------3-----------3-----------3-----------3-----------|

        Love                                            Love
        G                                               D
e|------------------------------------------------------------------------------|
B|------------0-----------0-----------0-----------0-----------0-----------0-----|
G|--------0-------0---0-------0---0-------0---0-------0---2-------0---2-------0-|
D|----------0---0-------0---0-------0---0-------0---0-----------0-----------0---|
A|----------------------------------------------------------0-----------0-------|
E|------3-----------3-----------3-----------3-----------2-----------2-----------|

        fall      into    my    side
        Bm          A           G
e|------------------------------------------------------------------------------------------------------|
B|------------3-----------2-----------0-----------0-----------0-----------0-----------0-----------0-----|
G|--------4-------2---2-------2---0-------0---0-------0---0-------0---0-------0---0-------0---0-------0-|
D|--------------2-----------2-------0---0-------0---0-------0---0-------0---0-------0---0-------0---0---|
A|----------2-----------0-------------------------------------------------------------------------------|
E|------2-----------2-----------3-----------3-----------3-----------3-----------3-----------3-----------|

        Slide,                  crawl     into   the    shades  of                         
        D                       Bm          A           F#m                         
e|------------------------------------------------------------------|
B|------------0-----------0-----------3-----------2-----------1-----|
G|--------2-------2---2-------2---4-------2---2-------2---1-------1-|
D|--------------0-----------0------------2-----------2----------1---|
A|----------0-----------0------------2-----------0----------2-------|
E|------2-----------2-----------2-----------2-----------1-----------|

        light
        G
e|------------------------------------------------------------------------------|
B|------------0-----------0-----------0-----------0-----------0-----------0-----|
G|--------0-------0---0-------0---0-------0---0-------0---0-------0---0-------0-|
D|----------0---0-------0---0-------0---0-------0---0-------0---0-------0---0---|
A|------------------------------------------------------------------------------|
E|------3-----------3-----------3-----------3-----------3-----------3-----------|

        Crawl      into    the  Night
        Bm          A           G
e|------------------------------------------------------------------------------------------------------|
B|------------3-----------2-----------0-----------0-----------0-----------0-----------0-----------0-----|
G|--------4-------2---2-------2---0-------0---0-------0---0-------0---0-------0---0-------0---0-------0-|
D|--------------2-----------2-------0---0-------0---0-------0---0-------0---0-------0---0-------0---0---|
A|----------2-----------0-------------------------------------------------------------------------------|
E|------2-----------2-----------3-----------3-----------3-----------3-----------3-----------3-----------|

Chorus:
        Oh--oh      Oh--oh-oh   Oh------
        Bm          A           G
e|------------------------------------------------------------------------------------------------------|
B|------------3-----------2-----------3-----------3-----------3-----------3-----------3-----------3-----|
G|--------4-------2---2-------2---0-------0---0-------0---0-------0---0-------0---0-------0---0-------0-|
D|--------------2-----------2-------0---0-------0---0-------0---0-------0---0-------0---0-------0---0---|
A|----------2-----------0-------------------------------------------------------------------------------|
E|------2-----------2-----------3-----------3-----------3-----------3-----------3-----------3-----------|

        Oh--oh      Oh--oh-oh   Oh------
        Bm          A           G
e|------------------------------------------------------------------------------------------------------|
B|------------3-----------2-----------3-----------3-----------3-----------3-----------3-----------3-----|
G|--------4-------2---2-------2---0-------0---0-------0---0-------0---0-------0---0-------0---0-------0-|
D|--------------2-----------2-------0---0-------0---0-------0---0-------0---0-------0---0-------0---0---|
A|----------2-----------0-------------------------------------------------------------------------------|
E|------2-----------2-----------3-----------3-----------3-----------3-----------3-----------3-----------|

        Oh--oh      Oh--oh-oh   Oh------
        Bm          A           G
e|------------------------------------------------------------------------------------------------------|
B|------------3-----------2-----------3-----------3-----------3-----------3-----------3-----------3-----|
G|--------4-------2---2-------2---0-------0---0-------0---0-------0---0-------0---0-------0---0-------0-|
D|--------------2-----------2-------0---0-------0---0-------0---0-------0---0-------0---0-------0---0---|
A|----------2-----------0-------------------------------------------------------------------------------|
E|------2-----------2-----------3-----------3-----------3-----------3-----------3-----------3-----------|

        Oh--oh      Oh--oh-oh   Oh------
        Bm          A           G                                               F#m
e|------------------------------------------------------------------------------------------------------|
B|------------3-----------2-----------3-----------3-----------3-----------3-----------1-----------1-----|
G|--------4-------2---2-------2---0-------0---0-------0---0-------0---0-------0---1-------1---1-------1-|
D|--------------2-----------2-------0---0-------0---0-------0---0-------0---0-----------2-----------2---|
A|----------2-----------0-----------------------------------------------------------2-----------2-------|
E|------2-----------2-----------3-----------3-----------3-----------3-----------1-----------1-----------|

Verse:
        Climb                                                                 wild        one
        G                                                                     D
e|----------------------------------------------------------------------------------------------------|
B|------------0-----------0-----------0-----------0-----------0---------0-----------0-----------0-----|
G|--------0-------0---0-------0---0-------0---0-------0---0---------0-------0---2-------2---2-------0-|
D|----------0---0-------0---0-------0---0-------0---0-------0---0-----0---0-----------0-----------0---|
A|--------------------------------------------------------------------------------0-----------0-------|
E|------3-----------3-----------3-----------3-----------3---------3-----------2-----------2-----------|

        hold     onto your      Wine
        Bm          A           G
e|------------------------------------------------------------------------------------------------------|
B|------------3-----------2-----------0-----------0-----------0-----------0-----------0-----------0-----|
G|--------4-------2---2-------2---0-------0---0-------0---0-------0---0-------0---0-------0---0-------0-|
D|--------------2-----------2-------0---0-------0---0-------0---0-------0---0-------0---0-------0---0---|
A|----------2-----------0-------------------------------------------------------------------------------|
E|------2-----------2-----------3-----------3-----------3-----------3-----------3-----------3-----------|

        Wild        one,        Beacon      of     a    god         
        D                       Bm          A           F#m
e|------------------------------------------------------------------|
B|------------0-----------0-----------3-----------2-----------1-----|
G|--------2-------0---2-------0---4-------2---2-------2---1-------1-|
D|--------------0-----------0-----------2-----------2-----------4---|
A|----------0-----------0-----------2-----------0-----------4-------|
E|------2-----------2-----------2-----------2-----------1-----------|

        divine.
        G
e|------------------------------------------------------------------------------|
B|------------0-----------0-----------0-----------0-----------0-----------0-----|
G|--------0-------0---0-------0---0-------0---0-------0---0-------0---0-------0-|
D|----------0---0-------0---0-------0---0-------0---0-------0---0-------0---0---|
A|------------------------------------------------------------------------------|
E|------3-----------3-----------3-----------3-----------3-----------3-----------|

        Leads      into    your    
        Bm          A           
e|------------------------------|
B|------------3-----------2-----|
G|--------4-------2---2-------2-|
D|--------------2-----------2---|
A|----------2-----------0-------|
E|------2-----------2-----------|
       
        thighs
        G
e|------------------------------------------------------------------------------|
B|------------0-----------0-----------0-----------0-----------0-----------0-----|
G|--------0-------0---0-------0---0-------0---0-------0---0-------0---0-------0-|
D|----------0---0-------0---0-------0---0-------0---0-------0---0-------0---0---|
A|------------------------------------------------------------------------------|
E|------3-----------3-----------3-----------3-----------3-----------3-----------|

        Bleeds    into    my    hearts       
        Bm          A           F#m
e|------------------------------------------|
B|------------3-----------2-----------1-----|
G|--------4-------2---2-------2---1-------1-|
D|--------------2-----------2-----------4---|
A|----------2-----------0-----------4-------|
E|------2-----------2-----------1-----------|

        design.
        G
e|------------------------------------------------------------------------------|
B|------------0-----------0-----------0-----------0-----------0-----------0-----|
G|--------0-------0---0-------0---0-------0---0-------0---0-------0---0-------0-|
D|----------0---0-------0---0-------0---0-------0---0-------0---0-------0---0---|
A|------------------------------------------------------------------------------|
E|------3-----------3-----------3-----------3-----------3-----------3-----------|

Chorus: 
        Oh--oh      Oh--oh-oh   Oh------
        Bm          A           G
e|------------5-----0-----------3-----------3-----------3-----------3-----------3-----------3-----------|
B|------3-----3-----2-----2-----3-----3-----3-----3-----3-----3-----3-----3-----3-----3-----3-----3-----|
G|------4-4---4---2-2-2-------2-0-0-------0-0-0-------0-0-0-------0-0-0-------0-0-0-------0-0-0-------0-|
D|------2-------2---2-------2---0---0---0---0---0---0---0---0---0---0---0---0---0---0---0---0---0---0---|
A|------2---2-------0---0-------2-----------2-----------2-----------2-----------2-----------2-----------|
E|------2-----------2-----------3-----------3-----------3-----------3-----------3-----------3-----------|

        Oh--oh      Oh--oh-oh   Oh------
        Bm          A           G
e|------------5-----0-----------3-----------3-----------3-----------3-----------3-----------3-----------|
B|------3-----3-----2-----2-----3-----3-----3-----3-----3-----3-----3-----3-----3-----3-----3-----3-----|
G|------4-4---4---2-2-2-------2-0-0-------0-0-0-------0-0-0-------0-0-0-------0-0-0-------0-0-0-------0-|
D|------2-------2---2-------2---0---0---0---0---0---0---0---0---0---0---0---0---0---0---0---0---0---0---|
A|------2---2-------0---0-------2-----------2-----------2-----------2-----------2-----------2-----------|
E|------2-----------2-----------3-----------3-----------3-----------3-----------3-----------3-----------|

        Oh--oh      Oh--oh-oh   Oh------
        Bm          A           G
e|------------5-----0-----------3-----------3-----------3-----------3-----------3-----------3-----------|
B|------3-----3-----2-----2-----3-----3-----3-----3-----3-----3-----3-----3-----3-----3-----3-----3-----|
G|------4-4---4---2-2-2-------2-0-0-------0-0-0-------0-0-0-------0-0-0-------0-0-0-------0-0-0-------0-|
D|------2-------2---2-------2---0---0---0---0---0---0---0---0---0---0---0---0---0---0---0---0---0---0---|
A|------2---2-------0---0-------2-----------2-----------2-----------2-----------2-----------2-----------|
E|------2-----------2-----------3-----------3-----------3-----------3-----------3-----------3-----------|

Outro: (17x)
        Oh--oh      Oh--oh-oh   Oh------
        Bm          A           G
e|------------5-----0-----------3-----------3-----------3-----------3-----------3-----------3-----------||
B|------3-----3-----2-----2-----3-----3-----3-----3-----3-----3-----3-----3-----3-----3-----3-----3-----||
G|------4-4---4---2-2-2-------2-0-0-------0-0-0-------0-0-0-------0-0-0-------0-0-0-------0-0-0-------0-||
D|------2-------2---2-------2---0---0---0---0---0---0---0---0---0---0---0---0---0---0---0---0---0---0---||
A|------2---2-------0---0-------2-----------2-----------2-----------2-----------2-----------2-----------||
E|------2-----------2-----------3-----------3-----------3-----------3-----------3-----------3-----------||
comments powered by Disqus
Наверх