Аккорды Ryley Johnson - Something Not Worth Missing

Добавлено: @romashka
Дата добавления: 09 Июня 2024г.
Рейтинг:
0.0
Просмотров: 19
[Chords]
Dsus2(add11)    xx0130
Dsus(add9)      xx0030 

[Intro]
e|--------0---------------0---------------------0------------------0--------|
B|---3-------3--------3-------3----------3---------3---------3--------3-----|
G|------2-------2--1--------------1--0----------------0---------2--------2--|
D|-0--------------------0--------------------0------------0-----------------|
A|--------------------------------------------------------------------------|
E|--------------------------------------------------------------------------|

e|--------0---------------0---------------------0------------------0--------|
B|---3-------3--------3-------3----------3---------3---------3--------3-----|
G|------2-------2--1--------------1--0----------------0---------2--------2--|
D|-0--------------------0--------------------0------------0-----------------|
A|--------------------------------------------------------------------------|
E|--------------------------------------------------------------------------|

[Verse 1]
Dsus2
I thought I was grounded
Dsus2(add11)
there is no way around it
Dsus(add9)
I was lost till I found it
Dsus2 
Ooh

Dsus2 
So why don't you come over?
Dsus2(add11)
Throw your hands around my shoulders
Dsus(add9)              Dsus2
I don't need no direction

Dsus2     Dsus2(add11)
So give me all 
Dsus(add9)
of your 
Dsus2 
affection

Dsus2     Dsus2(add11)
So give me all 
Dsus(add9)
of your 
Dsus2 
affection

[Chorus]
D         D7
Kiss me again
G                  Gm7
It has never been quite so real
D       D7
let me stay
G          Gm7
I'll be going home
D                  D7
with a smile, with a grin
G                     Gm7
I let you out but you let me in
Bm7
nothing else can beat it
A                        Gm7
maybe we can keep it that way

[Bridge]
Bm7
You changed my mind
A7
yesterday
G
cause I will be
E7
right this way

G A Bm7 A7 G Gm7

[Chorus]
D         D7
Kiss me again
G                  Gm7
It has never been quite so real
D       D7
let me stay
G          Gm7
I'll be going home
D                  D7
with a smile, with a grin
G                     Gm7
I let you out but you let me in
Bm7
nothing else can beat it
A                        Gm7
maybe we can keep it that way

[Verse 2]
Dsus2 
I love to be 
Dsus2(add11)
lay on your chest
Dsus2(add9)
with my hand on your thigh
Dsus2
and my head on your breast

Dsus2      Dsus2(add11)
A heart so full of you
Dsus(add9)             Dsus2 
I can barely call it my own

Dsus2    Dsus2(add11)
eye to eye
Dsus(add9)    Dsus2
is what I know

Dsus2 
You can 
Dsus2(add11)
call my 
Dsus(add9)
bluff
Dsus2 

[Middle 8]
A           Asus9
You sat me up
A           Asus9
you took my hand
A           Asus9
you made it real
A
out of this man

[Chorus]
D         D7
Kiss me again
G                  Gm7
It has never been quite so real
D       D7
let me stay
G          Gm7
I'll be going home
D                  D7
with a smile, with a grin
G                     Gm7
I let you out but you let me in
Bm7
nothing else can beat it
A                        Gm7
maybe we can keep it that way

[Bridge]
Bm7
The taste of your lips
A7
Free and existing
G
something that is real
E7
Something not worth missing

G A Bm7 A7 G

Gm7
Something not worth missing

[Chorus]
D         D7
Kiss me again
G                  Gm7
It has never been quite so real
D       D7
let me stay
G          Gm7
I'll be going home
D                  D7
with a smile, with a grin
G                     Gm7
I let you out but you let me in
D         D7
Kiss me again
G                  Gm7
It has never been quite so real
D       D7
let me stay
G          Gm7
I'll be going home
D                  D7
with a smile, with a grin
G                     Gm7
I let you out but you let me in
Bm7
nothing else can beat it
A                        Gm7
Maybe we can keep it that way
Музыка не только фактор облагораживающий, воспитательный. Музыка – целитель здоровья (Бехтерев)
Мы стремимся к созданию контента, соответствующего всем нормам законодательства и уважающего интеллектуальную собственность. Мы также придаем большое значение тому, чтобы не задеть никого и не оскорбить чьи-либо чувства. Если у вас есть вопросы или претензии по размещенному материалу, пожалуйста, сообщите нам об этом на указанный адрес электронной почты: [email protected].
Шрифт
-
0
+
Прокрутка
-
0
+
Стоп
Наверх