Аккорды «Saliva»

Saliva
Мемфис- не лучшее место для рождения нью метал/пост-гранжевого коллектива, но группе Saliva удалось нарушить эту традицию, появившись на радио наряду с такими группами как Creed и Nickelback. После участия в музыкальном конкурсе «Grammy Showcase» спонсором которого была «National Academy of Recording Arts & Sciences Grammy Showcase», где коллектив дошел до финала в Нью-Йорке, группа выпустила альбом Saliva, проданный в окрестностях Мемфиса числом более 10 000 копий. В 2000 году композиция «Your… Читать полностью... Мемфис- не лучшее место для рождения нью метал/пост-гранжевого коллектива, но группе Saliva удалось нарушить эту традицию, появившись на радио наряду с такими группами как Creed и Nickelback. После участия в музыкальном конкурсе «Grammy Showcase» спонсором которого была «National Academy of Recording Arts & Sciences Grammy Showcase», где коллектив дошел до финала в Нью-Йорке, группа выпустила альбом Saliva, проданный в окрестностях Мемфиса числом более 10 000 копий. В 2000 году композиция «Your Disease» становится саундтреком к фильму Дракула 2000 (фильм). Тогда про существование «Saliva» узнала вся Америка, а вскоре коллектив получил контракт от «Island Records». Продюсером дебютного альбома под покровительством «Island Records» альбома стал небезызвестный Боб Марлетт англ. Bob Marlett. Альбом получил название «Every Six Seconds» и вышел в 2001 году. Диск вывел группу на передний край ню-металла, заняв 56-ю позицию в чартах Billboard. Продажи альбома шли стабильно и потихоньку перевалили за платиновую отметку. Росту популярности «Saliva» способствовали постоянно крутившиеся в эфире песни типа «Your Disease» и «Click Click Boom» (обе композиции были изданы синглами). В 2002 году группа записывает второй альбом «Back Into Your System» включающий такие хиты, как «Always» и «Rest In Pieces» написанные также Джеймсом Майклом англ. James Michael и Никки Сикксом англ. Nikki Sixx из Mötley Crüe. В 2002 году Джози Скотт англ. Josey Scott исполнил с Чадом Крёгером англ. Chad Croeger из Nickelback песню «Hero» ставшей саундтреком к кинофильму «Человек-Паук» англ. "Spider-Man". В 2003 году группа гастролировала открывая концерты таких групп, как Kiss и Aerosmith. 29 мая 2005 года гитарист Крис Дьябалдо англ. Chris D'abaldo покинул группу, мотивируя это тем, что «Группа больше не единое целое». Позже он извинился на официальном веб-сайте и сказал: «У нас были кое-какие проблемы во взаимопонимании, но мы стремимся к записи нового альбома в этом году». Тем не менее, сайт извинился за созданные неудобства и дезинформацию, сказав также, что коллектив испытывает «творческие трудности». Кстати, в конце концов Дьябалдо покинул группу, но Saliva сказали что группа «двигается вперед как и было запланировано и вся наша лучшая музыка еще впереди». Недавно на веб-сайте группы появилась информация, что Джонатан Монтоя англ. Jonathan Montoya новый гитарист группы Saliva. Джонатан играл в Full Devil Jacket пока коллектив не пошел разными путями. Новый альбом группы «Blood Stained Love Story» был выпущен 23 января 2007 года. Сингл «Ladies & Gentlemen» был представлен на радио и занял первое место в US Mainstream Rock charts. Позже эта композиция стала гимном рестлинга. В 2008 году вышел очередной, пятый по счету альбом группы «Cinco Diablo», состоящий из 10 треков. 1996 — наши дни Мемфис, штат Теннеси, CША Скрыть...

Теги:

Популярные аккорды Saliva:
алфавиту | просмотрам | случайно
  • STANDARD TUNING
    
    Intro 
    G)----6-----4-4-6-4----------------6--4-4-6-4----I
    D)----6-----4-4-6-4----4-4-4-4-----6--4-4-6-4----I 
    A)----4-----2-2-4-2----4-4-4-4-----4--2-2-4-2----I
    E)----0-----0-0-0-0----2-2-2-2-----0--0-0-0-0----I
    
    All…
  • Dropped D flat tuning low to high: Db,Ab,Db,Gb,Bb,Eb
    
    -|----------------------------------------------------------------------------
    -|----------------------------------------------------------------------------
    -|-6-6-6-6-6-6-6-6b-6-6-6-6-6-6-6---------------------------------------------
    -|----------------------------------------------------------------------------
    -|----------------------------------------------------------------------------
    -|----------------------------------------------------------------------------…
  • Tunned down a half step
    Eb Ab Db Gb Bb Eb
    
    Opening riff, simular to this, same chords
    
     Em        G5       D5       A5
    e-----------------------------------------
    B-----------------------------------------
    G------------------------7----------------
    D------2--------5------7---7------7-------
    A----2---2----5---5--5----------7---7-----
    E--0--------3-----------------5-----------
    
    Pre…
  • Drop D tuning, down 1/2 step
    (low to high) Db-Ab-Db-Gb-Bb-Eb
    
    Intro
      
    (Guitar effects) 7 sec                  Riff A
    |------------------------|-------------|----------------------
    |------------------------|-------------|-----3---------3------
    |------------------------|-------------|--2---------2----2----
    |------------------------|-------------|----------------------
    |------------------------|-------------|----------------------
    |------------------------|----------0--|---------0------------
    
    |-------------------------------------------------------------
    |--------3---------3--------------3-----------3-------------3-
    |-----2---------2----2---------1-----------1----1--------0----
    |-------------------------------------------------------------
    |-------------------------------------------------------------
    |-3----------3-------------2-----------2-------------1--------
    
    |------------------|
    |--------3---------|
    |-----0------------|
    |------------------|
    |------------------|
    |-1------------0---|
    
    Verse
    Gtr.1…
  • Use drop D tuning
    
    E |----------------------------|
    B |----------------------------|
    G |----------------------------|
    D |----------------------------|
    A |-4-4-2-2-2-2-5-5-5-5-4-4-4-4|
    D |4-4-------------------------|
      -------------PM---------------
    
    E…
  • e|-----------------------------------------------------------------------|
    B|-----------------------------------------------------------------------|
    G|-----------------------------------------------------------------------|
    D|-2-4-5-2-4-5-4-5-------------------------------------------------------|
    A|-2-4-5-2-4-5-4-5-------------------------------------------------------|
    E|-0-2-3-0-2-3-2-3-------------------------------------------------------|
    Verse
    e|-----------------------------------------------------------------------|
    B|-----------------------------------------------------------------------|
    G|-----------------------------------------------------------------------|
    D|--5-5--7--5/7/5/7------------------------------------------------------|
    A|--5-5--7--5/7/5/7------------------------------------------------------|
    E|--3-3--5--3/5/3/5------------------------------------------------------|
    
    chorus…
  • Intro 1st Part
    E---------------------|
    B---------------------|
    G---------------------|
    D-------------2/3-2/3-|
    A-------------2/3-2/3-|
    E-xx-xx-xxx-x---------|
    Play 14 Times (On the 6th time play the part witht he slides…
  • Intro/Main Riff [Guitar 1]
                     3x
    e|----------------|----------------|
    B|----------------|----------------|
    G|.--------------.|----------------|
    D|.-4444333-3-33-.|--4444333-311--|
    A|--4444333-3-33--|--4444333-311--|
    D|--4444333-3-33--|--4444333-311--|
    
    Intro/Main…
  • tuning: dropped d I think (EBGDAD)
    
    INTRO & INTERLUDE
    E------------------------------------------------------
    B-------------------------------------------------
    G-----------------------------3-3-----------------------
    D--3-0--3-0--3h0-5--3-0--3-0--X-X--2nd…
  • D            G6/D          Bm            F#
     x|x|0|2|3|2   x|x|0|0|3|0   x|2|4|4|3|2   x|x|4|3|2|2  
     
          G            Gm           B5             D5          
     x|x|4|3|2|2   x|x|5|3|3|3   9|9|9|x|x|x  12|12|12|x|x|x…
  • Lowered One and a Half-Step Tuning (Db Gb B E)
    
    
    Main Riff
    E -------------------------------
    B -------------------------------
    Gb-------------------------------
    Db--3-5-5-3-5--3-5--3-5-3-6-6-6--
    
    
    Verse
    E ----------------------
    B…
  • intro - some kind of tremolo
    eb------------------------------|        x4
    Bb------------------------------|
    Gb------------------------------|
    Db------------------------------|
    Ab-----------1-1-1--------------|
    Eb-3-3-1-3-3--------------------|
    
    then…
  • Standard E Tuning
    
    Play the opening intro very low as the Verse's Riff.
    
    Intro/Verse Riff
    E---------------------------|
    B-6b7-7-7-6-6---------------|
    G-------------5-5-5-5h6p5-5-|
    D---------------------------|
    A---------------------------|
    E---------------------------|
    
    Chorus
    E-------------------|
    B---10/1210-7-5~---|
    G-7---------------9-|Don't…
  • Lowered One and a Half-Step Tuning (Db Gb B E)
    
    
    Intro
    E -----------------9--9----
    B --8--8--8-8-8--8------8--
    Gb-------------------------
    Db-------------------------
    
    E ----9--------9---9---9---9----
    B --8---8--8-8---8---8---8---8--
    Gb------------------------------
    Db------------------------------…
  • Lowered One and a Half-Step Tuning (Db Gb B E)
    
    The star (*) means strum the note for two measures
    
    
    Verse/Outro
    E -------------------------------------
    B -------------------------------------
    Gb--3*------0*------8*------10*--------
    Db-------------------------------------
    
    
    Chorus
    E…
  • intro
    
    P.M.
    c--------------------------------------
    G--------------------------------------
    D-0-7-0-7-0-5-5-5-5-5-5-8-8-8-7-7-8-7-8
    
    C-0-7-0-7-0-5-5-5-5-5-5-8-8-8-7-7-8-7-8
    G-0-7-0-7-0-5-5-5-5-5-5-8-8-8-7-7-8-7-8 x2
    D-0-7-0-7-0-5-5-5-5-5-5-8-8-8-7-7-8-7-8
    
    for…
  • verse and chorus riff:
    
    e--------------------------------------------------------------
    b--------------------------------------------------------------
    g--------------------------------------------------------------
    d------4-------------------------------------------------------
    a----4-----7--4--7---------------------------------------------
    e--------------------------------------------------------------
    
    repeat…
Наверх