Аккорды Santiano - Konnt ihr mich horen

Добавлено: @romashka
Дата добавления: 08 Июля 2022г.
Рейтинг:
0.0
Просмотров: 61
Транспонировать - +
Am                 
Folgt  meinem Ruf durch  kalte  Fluten.  
          F                 
Über  die Gischt in schwarzer Nacht.
           Dm                 
Gebt  eure Hoffnung   nie   verloren,
               Am                  G        Am
müht  euch  voran   mit  letzter  Kraft.           
          Am                
Das ferne Ziel,  spürt ihr es schwinden? 
                Dm                 
Ganz gleich wie hart der Sturm euch trifft.
              F                  G             Am     G
Folgt  meinem Ruf  auch  wenn  es euer Letztes ist.

               F     Dm               Am    G
Könnt ihr mich hören?  Durch Raum und Zeit. 
             F               Dm              Am     G
Folgt meinem Ruf, ich schenke euch Unsterblichkeit.
               F               Dm               Am              G
Könnt ihr mich hören, so fahrt hinaus. Gebt eure Seelen für mich auf.
               F     Dm               Am    Am
Könnt ihr mich hören?  Durch Raum und Zeit.

           Am                 
Nur immer weiter, schließt die Augen. 
                      F                 
Nur immer weiter gradeaus.
               Dm                 
Das Ziel liegt irgendwo da  draußen.
              Am             G     Am
Ihr müsst nur weit genug hinaus. 
                Am                  
Gebt, was euch noch  an  Kraft  geblieben.
             Dm                  
Haltet euch alle Zeit   an  mich.
               F              G             Am   G
Folgt  meinem Ruf auch wenn es euer Letztes ist.

                F     Dm               Am    G
Könnt ihr mich hören?  Durch Raum und Zeit. 
             F               Dm              Am     G
Folgt meinem Ruf, ich schenke euch Unsterblichkeit.
               F               Dm               Am              G
Könnt ihr mich hören, so fahrt hinaus. Gebt eure Seelen für mich auf.
               F     Dm               Am    Am
Könnt ihr mich hören?  Durch Raum und Zeit.
  
Am Em G G
           Ihr könnt unsterblich sein!
Bm F#m A A
Am Em G G
           Ihr könnt unsterblich sein!
Bm F#m A Bm Bm

           Am
Das ferne Ziel, spürt ihr es schwinden
           Dm
Was immer kommt, verzweifelt  nicht. 
               F              G             Am   G
Folgt  meinem Ruf auch wenn es euer Letztes ist.

Dm   
                F     Dm               Am    G
Könnt ihr mich hören?  Durch Raum und Zeit. 
             F               Dm              Am     G
Folgt meinem Ruf, ich schenke euch Unsterblichkeit.
               F               Dm               Am              G
Könnt ihr mich hören, so fahrt hinaus. Gebt eure Seelen für mich auf.
               F     Dm               Am    Am
Könnt ihr mich hören?  Durch Raum und Zeit.
 
Am Em G G
           Ihr könnt unsterblich sein!
Bm F#m A A
Am Em G G
           Ihr könnt unsterblich sein!
Bm F#m A Bm Bm 

Оригинал в Dm
  Dm              Dm              Bb              Bb
e|---------------|---------------|---------------|---------------|
B|---------------|---------------|---------------|---------------|
G|---------------|---------------|---------------|---------------|
D|----7-5-----7-5|---7-5------7--|----7-5-----7-5|---7-5------7--|
A|5-5-------5----|5-5-------5----|---------------|---------------|
E|---------------|---------------|6-6-------6----|6-6-------6----|

  Gm              Gm              Dm              C     Dm
e|---------------|---------------|---------------|---------------|
B|---------------|---------------|---------------|---------------|
G|---------------|---------------|---------------|---------------|
D|----5-3-----5-3|---5-3------5--|----7-5-----7-5|----3----------|
A|---------------|---------------|5-5-------5----|3-3---5--------|
E|3-3-------3----|3-3-------3----|---------------|---------------| 
Наверх