Аккорды Scars On Broadway - Insane

Добавлено: @romashka
Дата добавления: 03 Июля 2017г.
Рейтинг:
0.0
Просмотров: 311
Транспонировать - +
Вступление:   G#m                           F# 
5)-7-7-7-6-6-6-6-6--7-7-7-6-6-6-6-6-|-6-6-6-4-4-4-4-4---6-6-6-4-4-4-4-4-------
6)-4-4-4-4-4-4-4-4--4-4-4-4-4-4-4-4-|-2-2-2-2-2-2-2-2---2-2-2-2-2-2-2-2-------

Куплет:
G#m F#
So many ways to hide
G#m         F#
I see the trouble deep inside

Припев:                              E                                F#
E                     5)-4-4-4-2-2-2-2-2--4-4-4-2-2-2-2-2-|-6-6-6-4-4-4-4-4---6-6-6-4-4-4-4-4-
Let's go insane again 6)-0-0-0-0-0-0-0-0--0-0-0-0-0-0-0-0-|-2-2-2-2-2-2-2-2---2-2-2-2-2-2-2-2-
F#
Bring back the pain again
E
Let's go insane again
F#
Bring back the pain again

Проигрыш (2 раза): C# / Dbadd9
1)---4--4-4-4-4-4-4-4-4-4-4---
2)---4--4-4-4-4-4-4-4-4-4-4---
3)---6--6-6-6-6-6-6-6-6-6-6---
4)-6-6--6-6-6-6-6-6-6-6-6-6---
5)-4----4-4-4-4-4-4-4-4-4-4---
   V v  v ^ v ^ ^ v ^ ^ v ^

Куплет:
G#m F#
Run, run baby, run
G#m         F#
You'll see the things to overcome

Припев:
E                              
Let's go insane again
F#
Bring back the pain again
E
Let's go insane again
F#
Bring back the pain again

Проигрыш (2 раза): C# / Dbadd9
1)---4--4-4-4-4-4-4-4-4-4-4---
2)---4--4-4-4-4-4-4-4-4-4-4---
3)---6--6-6-6-6-6-6-6-6-6-6---
4)-6-6--6-6-6-6-6-6-6-6-6-6---
5)-4----4-4-4-4-4-4-4-4-4-4---
   V v  v ^ v ^ ^ v ^ ^ v ^

Соло:         G#m                 D#              C#m                           G#m               D#    
1)----------------7-7-7-7-7-7-7-7-6-6-6-6-9-9-9-9----------------------------------7-7-7-7-7-7-7-7-6-6-6-6-9-9-
2)-5--5-5-5-5-4-4---------------------------------5-5-5-5-5-5-5-5-5-5-5-5-4-4-4-4-4----------------------------
        
       C#m                   G#m                                D#                  C#m             G#m                 
1)-9-9-------------------------9-9-11-11-12-12--11-11-7-7-7-7-7-9-9-9-9-9-9-9-9-9-9-------------------9-9-11---
2)-----5-5-5-5-5-5-5-5-5-5-5-5------------------------------------------------------4-5-5-5-5-5-5-5-5----------

                             D#                 C#m       
1)-11-12-12--11-11-7-7-7-7-7-9-9-9-9-9-9-9-9-9-9------------------
2)----------------------------------------------4-5-5-5-5-5-5-5-5-

Куплет:
G#m F#
Dream, dream your broken dream
G#m         F#
You'll see the things I never see

Припев:
E                              
Let's go insane again
F#
Bring back the pain again
E
Let's go insane again
F#
Bring back the pain again

Проигрыш (1 раз): C# / Dbadd9
1)---4--4-4-4-4-4-4-4-4-4-4---
2)---4--4-4-4-4-4-4-4-4-4-4---
3)---6--6-6-6-6-6-6-6-6-6-6---
4)-6-6--6-6-6-6-6-6-6-6-6-6---
5)-4----4-4-4-4-4-4-4-4-4-4---
   V v  v ^ v ^ ^ v ^ ^ v ^

E                              
Let's go insane again
F#
Bring back the pain again
E
Let's go insane again
F#
Bring back the pain again

Кода: C# / Dbadd9 (1 удар)

Бой: V v ^ ^ v ^. Лучше играть всю песню на квинтах.
Наверх