Аккорды Scorpions - Always Somewhere

Добавлено: @romashka
Дата добавления: 23 Марта 2013г.
Рейтинг:
0.0
Просмотров: 507
Транспонировать - +
        C               G                D        Em
E|-----|-------0-----0-|-------3-----3-|---2----|---0-----|
B|-----|-1-------1-----|---0-----0-----|-----3--|-----0---|
G|-----|---0-------0---|-----0-----0---|-------2|-------0-|
D|-----|-----2---------|-------0-------|--------|---------|
A|0-2-3|---------------|---------------|-0------|-2-------|
E|-----|---------------|-3-------------|--------|---------|

Am
E|--0-----0---|
B|----1-----1-|
G|------2-----|
D|------------|
A|0-----------|
E|------------|

КУПЛЕТЫ:
        (arrive    at      seven        the place feels
        C               G                D        Em
E|-----|---------------|----------------|--------|---------|
B|-----|-1-----1-----1-|---0-----0-----0|---3----|---0-----|
G|-----|---0-----0-----|-----0-----0----|-----2--|-----0---|
D|-----|-----2-----2---|-------0-----0--|-------0|-------2-|
A|0-2-3|---------------|----------------|-0------|-2-------|
E|-----|---------------|-3--------------|--------|---------|
   good)
Am
E|------------|
B|--1-----1---|
G|----2-----2-|
D|------3-----|
A|0-----------|
E|------------|

C          G           D    Em    Am
Arrive at seven, the place feels good
No time to call you today
Encores till eleven then Chinese food
Back to the hotel again

(проигрыш)

I call your number, the line ain't free
I'd like to tell you come to me
And life without you seems like a lost dream
Love, I can tell you how I feel

припев:  (без перебора)
C       G
Always somewhere
Am                  F
Miss you where I've been
F         G                C     G
I'll be back to love you again

Another morning, another place
The only day off is far away
But every city has seen me in the end
And brings me to you again
Наверх