Аккорды «Scratch Acid»

Scratch Acid
Scratch Acid - нойз-рок-группа, основанная в 1982 в городе Остин (штат Техас). Первоначальный состав был таков: Стив Андерсон (вокал), Дэвид Симс (гитара), Брэт Брэдфорд (гитара), Дэвид Йоу (бас) и Рэй Уошем (барабаны). Андерсон покинул группу ещё до записи первого альбома, что вынудило Йоу стать вокалистом, а Симса - взяться за бас-гитару. Первые два альбома Scratch Acid были выпущены на техасском инди-лейбле Rabit Cat, третий и последний релиз Berserker EP был осуществлён лейблом Touch and… Читать полностью... Scratch Acid - нойз-рок-группа, основанная в 1982 в городе Остин (штат Техас). Первоначальный состав был таков: Стив Андерсон (вокал), Дэвид Симс (гитара), Брэт Брэдфорд (гитара), Дэвид Йоу (бас) и Рэй Уошем (барабаны). Андерсон покинул группу ещё до записи первого альбома, что вынудило Йоу стать вокалистом, а Симса - взяться за бас-гитару. Первые два альбома Scratch Acid были выпущены на техасском инди-лейбле Rabit Cat, третий и последний релиз Berserker EP был осуществлён лейблом Touch and Go Records. В 1991 году, уже после распада группы, тот же лейбл выпустил компиляционный CD "The Greatest Gift". Scratch Acid, славившиеся репутацией бешеной нойз-панк-группы, распались в 1987 году. Брэт Брэдфорд продолжил музыкальную карьеру в составе панк-группы Great Caesar's Ghost, которая распалась в 1993 году. Уошем выступал со многими группами, включая The Big Boys, Ministry, Helios Creed, The Didjits, Lard и Tad. В 1987 году Симс и Уошэм совместно со Стивом Альбини основали группу Rapeman, которая также просуществовала недолго. В 1989-ом Симс объединился с Дэвидом Йоу для создания The Jesus Lizard. Все оригинальные участники группы выступили в Emo's nightclub в Остине 2-го сентября 2006 года, а также на праздновании 25-ой годовщины лейбла Touch and Go в Чикаго 9-го сентября 2006 года. Они отыграли своё третье и последнее реюнион-шоу в Сиэтле 16-го сентября 2006-го, где отыграли 20 песен. Дискография 1984 Scratch Acid (Rabid Cat) 1986 Just Keep Eating (Rabid Cat) 1987 Berserker (Touch and Go Records) 1991 The Greatest Gift compilation (Touch and Go Records) Скрыть...
Популярные аккорды Scratch Acid:
алфавиту | просмотрам | случайно
  • ------------------------|
    ------------------------|
    -9-------7---9-------7--|
    -9--7/9--7---9--7/9--7--|
    -7--7/9--5---7--7/9--5--|
    ----5/7---------5/7-----| you get the drift.
    
    high part:
    
    -----------------------------------------------|
    -----------------------------------------------|
    -9--9-9-9--11-9-11/12--11-9--14-12-11--12-11-9-|
    -----------------------------------------------|
    -----------------------------------------------|
    -----------------------------------------------|
    
    -------------------------------------|
    -------------------------------------|
    -11-9-11-11b*--9-11-11b--9-11--11b---|
    -------------------------------------|
    -------------------------------------|
    -------------------------------------|
    
    *…
  • Riff A:
    
    G----------------------------------------------------------------|
    D----------------------------------------------------------------|
    A----------------------------------------------------------------|
    E--2-2-2-2-2-2-2-2-1-1-1-1-1-1-1-1-/4-4-4-4-4-4-4-4-/12-12-12-12-|
    
    G----------------|
    D----------------|
    A----------------|
    E--12-12-12-12---|
    
    G----------------------------------------------------------------|
    D----------------------------------------------------------------|
    A----------------------------------------------------------------|
    E--5-5-5-5-5-5-5-5-4-4-4-4-4-4-4-4-/7-7-7-7-7-7-7-7-/12-12-12-12-|
    
    G----------------|
    D----------------|
    A----------------|
    E--12-12-12-12---|
    
    Riff…
  • -------------|
    -------------|
    -------------|
    -------------|
    ----2--1--0--|
    -3-----------|play 6x, it speeds up gradually. Play one more G before going into verse.
    
    Verse:
    
    --------------------------------------|
    --------------------------------------|
    --------------------------------------|
    --------------------------------------|
    ------------------------0-1-2-1--1-0--|
    -0-0-3--0-0-0-3--0-0-0----------------|
    
    Chorus:
    
    B…
  • ---------|
    ---------|
    -9/10--9-|
    -9/10--9-|
    -7/8---7-|
    ---------|
    
    I don't know that main riff! Fuck! It's something like this:
    
    ------------------------------------|
    ------------------------------------|
    ------------------------------------|
    ------------------------------------|
    ------2-2-0-0-----------------------|
    -0--0---------0-0-3-3-0-0--2-3-2-0--|
    
    other…
  • Verse & Chorus
    
    E5  F5
    E----------|
    B----------|
    G-----9----|
    D-2-2\9----| x8
    A-2-2\7----|
    E-0-0\-----|
    
     C5 F5
    E----------|
    B----------|
    G-55\9-----| X3
    D-55\9-----|
    A-33\7-----|
    E----------|
    
    
     G5 F5
    E----------|
    B----------|
    G---\9-----|…
  • Main riff:
    
     --------------|
     --------------|
     --------------|
     --------------|
     --------------|
     -3~--3~--3~4~-|
     Bend those notes/Shake them/etc.
    
     Pre-chorus:
    
     --------------------------------------------|…
  • Main riff:
    
    G--------------------------------------------------|
    D-------7-7--6-6---------------7-7--6--------------|
    A-----------------7-7------------------7-5-4-------|
    E--5-5--------------------5-5----------------------|
    
    G---------------------------------------------------|
    D-------5-5--4-4---------------5-5--4---------------|
    A----------------5-5-------------------5-3-2--------|
    E--3-3--------------------3-3-----------------------|
    
    Chorus:
    
    G---------------------------------------------|
    D---------------------------------------------|
    A---------------------------------------------|
    E--1-1-1-1-1-1-1-1--0-0-0-0-0-0-0-0-----------|play…
Наверх