Аккорды «Seether»

Seether
Группа образовалась в 1999 году в городе Йоханнесбург, Южная Африка, и сначала играла под сильным влиянием гранжа, лишь позже переключившись на пост-гранж. Первые выступления группы прошли на вечеринках, в ночных клубах и университетах, таких как Университет Кейптауна (University of Cape Town) и Стелленбошский университет (University of Stellenbosch), где они играли во время обеденного перерыва в центре Neelsie на территории университета еще летом 2001 года. Под именем Saron Gas группа выпустила… Читать полностью... Группа образовалась в 1999 году в городе Йоханнесбург, Южная Африка, и сначала играла под сильным влиянием гранжа, лишь позже переключившись на пост-гранж. Первые выступления группы прошли на вечеринках, в ночных клубах и университетах, таких как Университет Кейптауна (University of Cape Town) и Стелленбошский университет (University of Stellenbosch), где они играли во время обеденного перерыва в центре Neelsie на территории университета еще летом 2001 года. Под именем Saron Gas группа выпустила свой первый альбом Fragile на Musketeer Records в 2000 году в Южной Африке. После успеха сингла в чарте Южной Африки группой заинтересовался лейбл Wind-Up Records, которому понравился мелодично-тяжелый стиль группы, и сразу предложил подписать контракт. Группе пришлось изменить свое название, чтобы избежать путаницы с смертоносным газом (sarin gas), который был разработан, но так и не был использован немецкой армией во время Второй мировой войны. Группа изменила свое название на Seether в честь песни группы Veruca Salt "Seether". Первый крупный успех, альбом Disclaimer II (2002-2004) Disclaimer если не взорвал, то уж точно произвёл большой фурор в рок-тусовке. Чувствовалось сильное влияние эпохи гранжа, а базой для интернационального успеха стали песни Driven Under, Fine Again и Broken. После группа отправилась в концертный тур для повышения узнаваемости бренда и увеличения продаж. После завершения турне группа планировала отправиться в студию и записать свой второй альбом. Однако вместо этого они отправились в мировое турне в поддержку Evanescence, что отложило планы записи альбома почти на год. Именно в это время группа переписала акустическую балладу "Broken" в электрическую балладу с Эми Ли и Шоном на вокале. Также этот период отметился горячим, но краткосрочным романом между двумя певцами (в 2005 году пара в пух и прах разругается, отголоски чего слышны до сих пор). Вдохновленные положительной реакцией песни (которая на данный момент является самым удачным синглом группы), ребята отправились в студию и быстро записали новый вариант "Broken". Он и вошёл в третий альбом, легко и просто названный Diclaimer II, став его самым успешным синглом. "Broken", наряду с новой песней под названием "Sold Me", вошла в саундтрек к кассовому фильму "Каратель" ("The Punisher" ), в результате чего группа получила известность в США, Великобритании и Австралии. Морган заявил, что хит появился в результате инцидента, когда группа записала то, что хотела звукозаписывающая компания, а не то, что хотела сама. Альбом Disclaimer II - альтернативная версия альбома, в котором многие оригинальные песни были перезаписаны или сделаны ремиксы + восемь дополнительных треков, был выпущен в конце 2004 года. Покорение чартов, альбомы Karma and Effect, One Cold Night (2005-2006) В 2005 году группа выпустила третий альбом Karma and Effect. Первоначальное название для альбома было "Catering to Cowards", но лейбл попросил группу изменить название. "Karma and Effect" дебютировал под номером 8 в чарте US Billboard 200 и стал золотым в США и Канаде. На альбоме есть три сингла: Remedy, Truth и The Gift. "Remedy" достиг №1 в US Mainstream Rock Charts, став первым синглом номер 1 группы. В 2006 году Seether выпустили акустический CD + DVD под названием One Cold Night, записанный на Grape Street в Филадельфии. Шон заявил, что лейбл решил сделать альбом без ненормативной лексики, вот почему треков "Needles" и "Burrito" нет на альбоме. 16 июня 2006 года через официальный сайт Seether было объявлено о том, что ведущий гитарист Пэт Каллахан решил покинуть группу. Точная причина ухода не известна. Морган прошел курс реабилитации от алкогольной зависимости в августе 2006 года, в результате чего группе пришлось отменить свое турне с Staind и Three Days Grace. Продолжение успеха, альбом Finding Beauty In Negative Spaces (2007-2009) Фронтмен группы Шон Морган до выхода нового альбома утверждал, что он будет более "разнообразным", чем предыдущие. Первоначально планируемый на август релиз альбома был отложен после инцидента с братом Моргана Юджином. Продюсируемый Говардом Бенсоном альбом попал на прилавки магазинов 23 октября 2007 года. Продажи первой недели в 57000 экземпляров помогли релизу забраться на 9 строчку хит-парада Billboard 200 - главной витрине мировых достижений среди альбомов. Первый сингл Fake It занимал в те дни первое место в US Mainstream Rock Charts и Modern Rock Charts, оставаясь на вершине 9 недель в обоих чартах. Сингл также стал темой WWE No Way Out 2008's. После успеха "Fake It" был выпущен второй сингл Rise Above This, который также достиг 1 места в чарте Modern Rock Tracks и 2 места его основного партнера. Последний сингл с альбома Breakdown (видео которого было выпущено 12 ноября 2008 года с небольшой задержкой от первоначально планируемой даты релиза 23 октября) имел чуть менее скромный успех. Seether начали турне в поддержку альбома в начале 2008 года, которое продолжалось большую часть года. Группа привлекла Троя МакЛоухорна (Troy McLawhorn) из Dark New Day и Evanescence как туринг-гитариста. После успешного тура МакЛоухорну было предложено стать официальным членом группы. Seether получили свою первую награду South African Music Award как "Best Rock: English" за альбом Finding Beauty In Negative Spaces, а также MTV Africa Music Award как "Лучший альтернативный артист" ("Best Alternative Artist"). В начале 2009 года новая песня под названием "No Shelter" была использована на NCIS Official TV Soundtrack, вышедшем 10 февраля. Кроме того, кавер песни 1984 г. Careless Whisper группы Wham! был доступен для покупки через интернет или мобильный телефон. Песня, как сообщается, была перепета как шутка. Wind-up Records попросили Seether сделать песню ко Дню Св. Валентина, а они превратили знаменитейшею поп-песню 80-х в хард рок/метал версию. "Careless Whisper" получила большую огласку. Клип на эту песню вышел 15 июня 2009 года, и песня может быть найдена как дополнительный трек на переиздании Finding Beauty In Negative Spaces. Кавер песни "Careless Whisper" от Seether был признан пятым из когда-либо создававшихся каверов на песню Джорджа Майкла. Гастроли и Holding onto Strings Better Left to Fray (2009-2012) С марта по апрель 2009 Seether выступали на разогреве Nickelback в их туре 2009 Dark Horse Tour. Позже, в мартовском интервью Шон и Дейл подтвердили, что после тура с канадцами Seether возьмёт годичный отпуск для создания и записи следующего студийного альбома, выпуск которого планируется в первой половине 2010 года. Несмотря на это заявление, группа сыграла серию концертов в 2009 году, в том числе концерт в Японии для американских войск в рамках тура USO 23 мая и 24 мая 2009 на Окинаве в Кэмп-Шваб (Camp Schwab), а затем в MCAS Iwakuni 26 мая 2009 года для американских морских пехотинцев. Наряду с этим Seether выступила на нескольких фестивалях летом 2009 года, включая Chippewa Valley Music Festival и the Quebec City Festival, прежде чем завершить свой тур на The Big E Festival в Спрингфилде 4 октября 2009. Эти подвижки привели к тому, что Holding onto Strings Better Left to Fray вышел в свет только 17 мая 2011 года. Не смотря на довольно скромные продажи, альбом отвоевал второе место в Billboard 200. Это был первая и последняя полноценная запись Троя МакЛоухорна в роли гитариста Seether - весной 2011 года он вернулся в Evanescence, которые готовили своё большое возвращение с новым альбомом и подобающим туром. По словам Шона, уход Троя обошёлся без скандалов, хотя причина и скрывалась в "трениях между мной и одним из музыкантов" и "вероломстве на личном уровне", как сам написал в своем блоге Трой. Оба сингла, Country Song и Tonight, вышли 8 марта и 7 июня соответственно. Клип на первый вышел в срок, а вот на "Tonight" группа сняла довольно простое видео с одного из концертов в США и опубликовала лишь осенью. Нынешний состав: * Шон Морган (Shaun Morgan) — вокал и гитара (с 1999) * Дейл Стюарт (Dale Stewart) — бас и вокал (с 2000) * Джон Хамфри (John Humphrey) — ударные (с 2004) Предыдущие участники: * Dave Cohoe — ударные (2002) * Nick Annis — гитара(2002) * Nick Oshiro — ударные (2002—2003) * Kevin Soffera — ударные (2003) * Пэт Каллахан (Pat Callahan) — гитара (2003—2006) * Трой МакЛоухорн (Troy McLawhorn) — гитара (2008—2011) Скрыть...
Популярные аккорды Seether:
алфавиту | просмотрам | случайно
  • standard tunning, BEADG, yeah, thats right, 5 string bass guitar.
    
    |intro|
    G|----------------------|
    D|----------------------|
    A|----------------------|
    E|-2--2/5--0-0--------0-|
    B|--------------5-3-3---|
    
    |verse|
    G|---------------------------------------|
    D|---------------------------------------|
    A|---------------------------------------|
    E|-2-2-2--x--5-5-5--x-x------------------|
    B|-----------------------5-5-5--x--3-3-3-|
    
    
    |chrous|
    G|----------------------------------------|
    D|----------------------------------------|
    A|----------------------------------------|
    E|-2-2-2--x-x-----------------------------|
    B|-------------3-3-3--0-0-0--x--5-5-5-5-5-|
    
    |bridge|
    G|-------------------|
    D|-------------------|
    A|-5-5/2-2-2/5-5-5/2-|
    E|-------------------|
    B|-------------------|…
  • E  C#m (x2)
    
    
    E                                              C#m
    Well fortune favors not the young, spoken words in songs unsung
    E                                                   C#m 
    I never learn from my mistakes,…
  • Standard Tuning
    Intro: Em C Em C Em C G (figure out the pattern yourself)
    
    Em       C                    Em       C
    I wanted you to know I love the way you laugh
     Em       C                    Em       C
    I wanna hold you…
  • Key:
    X = mute strings with fingering hand (gives “chicka chicka” sound)
     or / = slide
    
    
    Intro
    E|----0----0----0----0----0-------0----0----0-----0-----0--------|
    B|--------------------------------------------3-----3------------|
    G|--2----2----2----2----2-------2----2----2-----2-----2----------|X2
    D|3----3----3----3----3----0--2----2----2-----------------0------|
    A|---------------------------------------------------------------|
    E|---------------------------------------------------------------|
    
    Verse1…
  • Intro - bass line/guitar
    -F-F-B-F-C-B-F-B-G-G-B-G-C-B-G-B-
    e---------------------------------
    b---------------------------------
    g---------------------------------
    d---------------------------------
    a-----2---3-2---2-----2---3-2---2-
    E-1-1---1-----1---3-3---3-----3---…
  • Tuning:EADGBE
    
    Intro/Verse(light distortion)
    E|---------------------------------------------------------------------------|
    B|---------------------------------------------------------------------------|
    G|----------------------77h8p7-----------------------------------------------|
    D|------7--------------------------------------------------------------------|
    A|---5--5--7—8Let…
  • Intro
    G|---------7-----------------------------7--------------------
    D|-------7-------7-----5---5-----------7-------7-----5---5----
    A|-----5-------7-----5-------5-------5-------7-----5-------5--
    E|-----------5-----3-----3-----------------5-----3-----3------
    
    
    Strum…
  • Capo 5th Fret
    
    Am              C               Dm           C
    No more love to purchase, I've invested in myself
          Am           C              Dm             C
    You know nothing about me, keep opinions to yourself…
  • Tuning:	Standard tuning dropped half a step to Eb
    
    Intro: 	Guitars 1 and 2 play together 3 times
    EbI------------------------------------------------------------------12-12-12--
    Bb|------------------------------------------------------------------12-12-12--
    Gb|------------------------------------------------------------------12-12-12--
    Db|----2-2-x-x--x--x--x--x-x-x-----------2-2-x-x--x--x--x----------------------
    Ab|----2-2-x-x--x--x--x--x-x-x-----------2-2-x-x--x--x--x----------------------
    Eb|----0-0-x-x--x--x--x--x-x-x-----------0-0-x-x--x--x--x----------------------
    
    
    Verse…
  • Tuning:DADGBE
    Intro/verse
    e|---------------------------------------------------------------------------|
    B|---------------------------------------------------------------------------|
    G|-------8-------6-----------------------------------------------------------|
    D|-----6-------4---------4---------------------------------------------------|
    A|---4-------2----------2----------------------------------------------------|
    D|---------------------2-----------------------------------------------------|
    Chorus…
  • STANDARD TUNING w/
    CAPO ON 3
    
    
    (*= one strum)
    
    
    Intro-
    G  Em 
    
    
    G                                           Em
    Come smoke a cigarette and let your hair down
                                  G
    Then pray for the…
  • Tuning - Drop D, down half step (recording sounds a half step lower than
    written)E
    1-Eb
    2-Bb
    3-Gb
    4-Db
    5-Ab
    6-Db
    
    INTRO: GUITAR 1
    Eb|--0--0--0-0--0--0--0--0--0--0-0-0-0-0--0-0-0-0-0-0--| x4
    Bb|--0--0--0-0--0--0--0--0--0--0-0-0-0-0--0-0-0-0-0-0--|
    Gb|--7--7--7-7-10-10-10-10-10--9-9-9-9-9--7-7-7-5-5-5--|
    Db|--7--7--7-7-10-10-10-10-10--9-9-9-9-9--7-7-7-5-5-5--|
    Ab|--5--5--5-5--8--8--8--8--8--7-7-7-7-7--5-5-5-3-3-3--|
    Db|----------------------------------------------------|…
  • Intro:
    F#m  C#m  E  B
    
    F#m  C#m  E  B
    
    Verse 1:
    F#m                       C#m
    Keep me locked up in your broken mind
    E                 B
    I keep searching, never been able
    F#m                         C#m
    To find…
  • Tuning: Drop D Tuned Down 1/2 Step (Db)
    
    Intro/verses—clean on this part
    
    e|------------------------------------------------------------------------------|
    B|------------------------------------------------------------------------------|
    G|-------------4----------------3---------------1---1---------------------------|
    D|-------6--------6--------4-------4---------2---------4---2--------4---2-------|
    A|----6----(6)-------6---4---(4)------4----2-------------------(2)--------------|
    D|------------------------------------------------------------------------------|
    
    e|------------------------------------------------------------------------------|
    B|-----------------------------------------------------------------4------------|
    G|------------4------------------3--------------1----1-------------4------------|
    D|------6-------6--------4----------4---------2---------4---2-------------------|
    A|---6-----(6)-----6---4-----(4)-------4---2------------------------------------|
    D|------------------------------------------------------------------------------|
    
    Play…
  • TUNNING
    DROP D
    
    Intro 2x
    e|-----------------------------------------------------------|
    b|-----------------------------------------------------------|
    g|5-5-5-5----------------------------------------------------|
    d|5-5-5-5--8-8-8-8-8---1-1-1-1--3--1h3-3---------------------|
    a|3-3-3-3--8-8-8-8-8---1-1-1-1--3--1h3-3---------------------|
    d|---------8-8-8-8-8---1-1-1-1--3--1h3-3---------------------|
    
    verse
    e|-------------------------------------------------|
    b|-------------------------------------------------|
    g|----5-------3--------3---------5-----------------|
    d|----5-------3--------3---------5-----------------|
    a|--3-3----1--1-----1--1------3--3-----------------|
    d|-0-----0---------0--------0----------------------|
    
    Chorus
    e|-----------------------------------------------------------|
    b|-----------------------------------------------------------|
    g|5-5-5-5----------------------------------------------------|
    d|5-5-5-5--8-8-8-8-8---1-1-1-1--3--1h3-3---------------------|
    a|3-3-3-3--8-8-8-8-8---1-1-1-1--3--1h3-3---------------------|
    d|---------8-8-8-8-8---1-1-1-1--3--1h3-3---------------------|
    
    (then…
  • Tuning: Drop D Tuned Down 1/2 Step (Db)
    
    qb - quarter bend
    hb - half bend
    fb - full bend
    r - release
    h - hammer-on
    p - pull-off
    X - Mute string
    ~ - vibrate
    PM - palm mute
    
    
    Main Riff
    |----------------|
    |----------------|
    |----------------|
    |-2--X-0-2-2-0-5-|
    |-2--X-0-2-2-0-5-|
    |-2--X-0-2-2-0-5-|
    
    Intro…
  • Tuning DADGBe
    
    
    Intro - Verse
    
    e|------------------------------------------------------------|
    B|------------------------------------------------------------|
    G|------------------------------------------------------------|
    D|-777777-999999-101010101010-12-10-9-------------------------|
    A|-000000-000000--0-0-0-0-0-0--0--0-0-x2----------------------|
    D|-000000-000000--0-0-0-0-0-0--0--0-0-------------------------|
    
    
    e|------------------------------------------------------------|
    B|------------------------------------------------------------|
    G|------------------------------------------------------------|
    D|-555555-777777-999999-777777--------------------------------|
    A|-555555-555555-555555-555555-x2-----------------------------|
    D|-555555-555555-555555-555555--------------------------------|
    
    Pre-Chorus
    (The…
  • Tuning:EADGBE
    
           Guitar #1(Echo Effect used)
    
    e|------------------------------------------------------------------|-------
    B|------------------------------------------------------------------|-------
    G|---------------5----1----5----1----------------5----1----5----1---|-------
    D|-----3----6--------------------------3----6-----------------------|---3---
    A|------------------------------------------------------------------|-------
    E|------------------------------------------------------------------|-------…
  • Tuning: Drop D
    Intro: (Fast rock 200)Guitar 1:
    E----------------------------------------------------------------|
    B----------------------------------------------------------------|
    G----------------------------------------------------------------|
    D---11-------11------11------11----------------------------------|
    A-0----x5--11---x5--9---x5-10---x5-------------------------------|
    D----------------------------------------------------------------|play…
  • D                                  F#m
    Well, the tongue inside my mouth is not for sale
        D                            F#m
    Any spirit left in me is fading fast
              D                               F#m
    Could you…
  • Tuning: Drop D Tuned Down 1/2 Step (Db)
    
    VERSE
    
    "If I gave you the truth..."
    eb-------------------------|
    Bb-------------------------|
    Gb------4-------4----------|
    Db----4---4-------4-----4~-|
    Ab--2---------2-------0----|
    Db----------2-------0------|
    
    RIFF…
  • INTRO:none
    
    PRE-CHORUS: GUITAR 1+2
    D|-----------------------------------| x4
    A|--3-3------------------------------|
    F|--2-2-----5-5---5-5-5---5-7---5----|
    C|--0-0---0-3-3---3-5-5---5-5---3----|
    G|--0-0---0-3-3---3-3-3---3-5-0-3-0--|
    C|--0-0---0-3-3-------------5-0-3-0--|
    
    CHORUS:…
  • Capo 2
    
    Verse 1:
    
         Em 
    It's all too revealing
         C 
    Your words are deceiving
      Am                      G D
    I can't let you get in my way
      Em                         C
    I sense all your actions are meant…
  • Drop D Tuning
    
    | -----------------------------------------------------|
    | -----------------------------------------------------|
    | -----------------------------------------------------|
    | -6h7-6h7h6--6h7-6h7h6--6h7-6h7h6--6h7------7---------|
    |…
  • INTRO:
    
    Dm  Gm  Bb  A  C x2
    
    e|-----------------------10b12------10b12------8b---------8b-------|
    B|----------------------------10--------10--------11--------11-----|
    G|------------------------------10--------10--------10-7-------10--|
    D|-----------------------------------------------------------------|
    A|-----------------------------------------------------------------|
    D|-----------------------------------------------------------------|
    
    e|-------------------------------------------------------|
    B|---11-10-------------------------------------------10--|
    G|---------10--------------------------9-10-9h10h12------|
    D|-------------12\8~---------8--10-12--------------------|
    A|------------------------12-----------------------------|
    D|-------------------------------------------------------|
    
    
    VERSE…
  • Tuning: eb Bb Gb Db Ab Eb
    
    eb|-------------------|
    Bb|-------------------|
    Gb|---3-3h4-------3h4-|
    Db|-5---------3-3-----| x4(acoustic)
    Ab|-5---------3-3-----|
    Eb|-3-------0-1-1-----|
    
    eb|-------------------|
    Bb|-------------------|
    Gb|---3-3h4-------3h4-|
    Db|-5---------3-3-----|…
  • Tuning - Drop D, down half step (recording sounds half step lower than
    written)
    1-Eb
    2-Bb
    3-Gb
    4-Db
    5-Ab
    6-Db
    
    INTRO: GUITAR 1+2
    Eb|--------------------------------------------------------| x2
    Bb|--3--3-3---------------------3--3-3---------------------|
    Gb|--2--2-1----5--5-5---4s5-4---2--2-1----5--5-5---4s5-10--|
    Db|--0--0-0--0--------0-------0-0--0-0--0--------0---------|
    Ab|--0--0-0--0-3--3-3-0-2s3-2-0-0--0-0--0-3--3-3-0-2s3--8--|
    Db|--0--0-0-------------------0-0--0-0---------------------|
    
    VERSE:…
  • Intro: G, A#, F
    
    G                    A#
    I'm a whisper lost upon wind
    F
    I'm the ember that'll burn you down
    G                      A#
    I'm the water that'll drown you
    F
    I'm a star that's just a black hole now
    G…
  • Verse 1: (just listen for where to come in)
    G--------------|-------------------| x6
    D--------------|-------------------|
    A--------------|-------------------|
    D--0-0-0-4---3-|--3-4-3-0----0-0-0-|
    
    Chorus:  x2
    G------------------|------------------|------------------|-----------|
    D------------------|------------------|------------------|-----------|
    A------------------|------------------|------------------|-----------|
    D--5-5-5-3-3---3-3-|--5-5-5-8---8-8-8-|--5-5-5-3-3---3-3-|--5-5-0-5--|
    
    Verse…
  • Standard Tuning
    
    Intro: F, Am, F, Am
    
    Chorus:
         F                Am
    I've got you under my skin
         F                   Am
    I've got you deep in the heart of me
       F                                     Am
    So…
  • INTRO:
       GUITAR 1
    1|-------------------------------------------------------------------------------------------------|
    2|--3--3---3-3h5-5-3h5p3-3--3-------3----------------------3--3h5-5-3h5p3-3--3-------5p3-3---------|
    3|--2--2-2---2---2-----2-3------3-----3---3----3-------2---2--2---2-----2-3------3---------3-3---3-|
    4|--0--0-0---0---0-----0------5---5-----5----5---5---0---0-0--0---0-----0------5---5-----------5---|
    5|-------------------------------------------------0-----------------------------------------------|
    6|-------------------------------------------------------------------------------------------------|
    7|-------------------------------------------------------------------------------------------------|…
  • Drop D Tuning DADGBE.
    
    .=P.M.
    
    (Intro)
    E-----------------------------------|
    B-----------------------------------|
    G-10(Pick Really Fast)--------------|
    D-----------------------------------|
    A-----------------------------------|
    D-----------------------------------|
    
    E-----------------------------------------------------------|
    B-----------------------------------------------------------|
    G-----------------------------------------------------------|
    D-3/6-6--xxx--6/8-8--xxx--1110-10--xxx--108-8--xxx--------|
    A-3/6-6--xxx--6/8-8--xxx--1110-10--xxx--108-8--xxx--------|
    D-3/6-6--xxx--6/8-8--xxx--1110-10--xxx--108-8--xxx--------|
    
    (Vers)
    E-----------------------------|
    B-----------------------------|
    G-----------------------------|
    D-----------------------------|
    A-------4--1------------------|
    D-3--6------------------------|
    
    (Pre-Chours)
    E-------------------------------|
    B-------------------------------|
    G-------------------------------|
    D-------------------------------|
    A-------------444-44111-3-------|
    D-333-33666-66----------3-------|…
  • Tuning:Eb Ab Db Gb Bb Eb
    
    INTRO                                  MY FIRST TAB..HOPE YOU LIKE 
    
    eb|----------------------0--------------------------0-------------------------|
    Bb|---------3P1----------0------------3P1------------0----------3P1-----------|
    Gb|-------0----0---------------------0-----0-----------0-------0---0----------|
    Db|-----2---------2---2-----2-----2----------2--2--------2---2----------------|
    Ab|---3-----------2---2----2----3------------2--2----------3------------------|
    Eb|---------------0---0----------------------0--0-----------------------------|
    
    eb|---------0-----------------------------------------------------------------|
    Bb|---------0------------3P1--------------------------------------------------|
    Gb|--------------------0------------------------------------------------------|
    Db|--2--2-------2----2--------2-----------------------------------------------|
    Ab|--2--2-----2----3----------2-----------------------------------------------|
    Eb|--0--0---------------------0-----------------------------------------------|
    
    VERSE…
  • Tuning: Drop C (Drop D, Down 1 full step)
    
    Intro:        x3                     then            
    D|---------------------------------------------------------------------------|
    A|---------------------------------------------------------------------------|
    F|---------------------------------------------------------------------------|
    C|----5/7---/10---\7--------------------------------5/7----/10---10/12-------|
    G|---------------------------------------------------------------------------|
    C|0---------------------------------------------0----------------------------|
    --After…
  • Tuning: Drop C
    
    Intro
    D|---------------------------------------------------------------------------|
    A|---------------------------------------------------------------------------|
    F|---------------------------------------------------------------------------|
    C|---------------------------------------------------------------------------|
    G|---------------------------------------------------------------------------|
    C|-0-0-13s12-0-10s12-0-8s10-8s7-5---0-0-13s12-0-10s12-0-8s10-8s7-10----------|
    
    D|------------------------------------------------------------|
    A|------------------------------------------------------------|
    F|------------------------------------------------------------|
    C|------------------------------------------------------------|
    G|------------------------------------------------------------|
    C|-0-0-13s12-0-10s12-0-8s10-8s7-5-3-0-10s8-5p0-5-0-12s10-5----|
    
    Verse
    D|------------------|
    A|---3--------------|
    F|---2----3----2----|
    C|---0----3----2----|
    G|---0----1----0----|
    C|---0----0----0----|
    
    Pre…
  • | --------------|
    | --------------|
    | --------------|
    | --------------|
    | -0-0-2h3-2----|
    | -0-0-2h3-2----|
    Intro x4
    | --------------------------------------------------|
    | --------------------------------------------------|
    |…
  • Tuning: Drop C
    
    
    Intro / Pre Chorus
    D|---------------------------------------------------------------------------|
    A|-----13------13------15------15------13------13------15--15--15------------|
    F|---14--14--14--14--14--14--14--14--14--14--14--14--14--14--14--------------|
    C|-12------12------12------12------12------12------12------------------------|
    G|---------------------------------------------------------------------------|
    C|---------------------------------------------------------------------------|
    
    
    Pre…
  • tuning - Drop D, down half step
    (the recording sounds a half step lower than written)
    1-Eb
    2-Bb
    3-Gb
    4-Db
    5-Ab
    6-Db
    
    INTRO and VERSE:
        GUITAR 1 (repeat whole thing thrice)
    Eb|---------------------------------------------|
    Bb|---------------------------------------------|
    Gb|----------4---4-4-4--------------------------|
    Db|--5--4--0-2---2-2-2-----9-7-4--4--4-4h5-4-0--|
    Ab|--2--2--0-2-------2-5-5-0-0-0--0--0-0---0-0--|
    Db|--2-----------------5-5-0-----------0---0-0--|…
  • Tuning: Drop D Tuned Down 1/2 Step (Db)
    
    INTRO - Play twice
    Guitar 1 - Dist.
    eb|-------------------------------------------|
    Bb|-------------------------------------------|
    Gb|-------------------------------------------|
    Db|--0-0--0--0-0-0--0--0-0--0--0-0-0--0--6666-|
    Ab|--0-0--0--0-0-0--0--0-0--0--0-0-0--0--6666-|
    Db|--0-0--0--0-0-0--0--0-0--0--0-0-0--0--6666-|
    
    Guitar…
  • Tuning
    D,A,D,G,B,E
    Intro
       D
    E--0------------------------------------------------------------------------|
    B--3------------------------------------------------------------------------|
    G--2------------------------------------------------------------------------|
    D--0------------------------------------------------------------------------|
    A---------------------------------------------------------------------------|
    D---------------------------------------------------------------------------|
    Chorus
    E---------------------------------------------------------------------------|
    B---------------------------------------------------------------------------|
    G---------------------------------------------------------------------------|
    D--0h233p2p0----0-0-3p0-0-0-0-0-3p0--555-5---1-1----------------------------|
    A--0h233p2p0----0-0-3p0-0-0-0-0-3p0--333-5—--1-1----------------------------|
    D--0h233p2p0----0-0-3p0-0-0-0-0-3p0------5—--1-1----------------------------|
    
    Then…
  • Tuning - Drop D, down half step (recording sounds a half step lower than
    written)
    1-Eb
    2-Bb
    3-Gb
    4-Db
    5-Ab
    6-Db
    
    INTRO:
        GUITAR 1
    Eb|---------------------------------------------------------------------------------------|
    Bb|---------------------------------------------------------------------------------------|
    Gb|--11-11-11-11-11-11-11-11-9-9-9-7-7-7-14s11-11-11-11-11-11-11-11-11-9-9-9-7-7-7-14s12--|
    Db|---------------------------------------------------------------------------------------|
    Ab|---9--9--9--9--9--9--9--9-7-7-7-5-5-5-12s-9--9--9--9--9--9--9--9--9-7-7-7-5-5-5-12s10--|
    Db|---------------------------------------------------------------------------------------|…
  • Intro: Em, Am, C, D
    
    Verse 1:
    Em
    Now I'll take the blame
    Am
    So forget my name
    C                     D
    Just close the blinds so I can come down
    Em
    I'm naked and shamed
    Am
    A moth to the flame
    C…
  • the song is played in Drop C 
    chords are C,Am,F,G
                                                                                 
    intro  -- C,Am,F,G
     
    C
    I think its time for a change.
    Am
    Cause things feel out of touch.
    F…
  • Tuning:Whole Step down (DGCFAD)
    
    Verse 1 (clean):
    
    e|------3b----0-------0--3b-0-----3b---0-----------------------------------|
    B|-------------0--3b---------------------0----3b--0------------------------|
    G|--------------------------------------------------2--0-------------------|
    D|-------------------------------------------------------------------------|
    A|-------------------------------------------------------------------------|
    E|----0-----0-----0------0-----0------0-------0-----0----------------------|…
  • Standard Tuning
    
    
    Dm    		          F
    I can't remember a better day
      C
    A one without giving up
    Dm            			      F                       
    The shine has worn off the things you say
         C
    It's just not good…
  • e--------------------------------------------------|
    B-15^-15-14-17p15p14\12/14---(x3)------------------|
    G--------------------------------------------------|
    D--------------------------------------------------|
    A--------------------------------------------------|
    E--------------------------------------------------|
    
    e--------------------------------------------------|
    B-13h14p13p11-11h12p11p9-13h14p13p11-11h13^--------|
    G--------------------------------------------------|
    D--------------------------------------------------|
    A--------------------------------------------------|
    E--------------------------------------------------|
    
    e------------12-11-10-9-----------------------12-11-10-9-|
    B-12-11-10-9------------12-11-10-9-12-11-10-9------------|
    G--------------------------------------------------------|
    D--------------------------------------------------------|
    A--------------------------------------------------------|
    E--------------------------------------------------------|
    
    
    e-----------------------12-11-10-9-----------------------12-11-10-9-|
    B-12-11-10-9-12-11-10-9------------12-11-10-9-12-11-10-9------------|
    G-------------------------------------------------------------------|
    D-------------------------------------------------------------------|
    A-------------------------------------------------------------------|
    E-------------------------------------------------------------------|
    
    
    e-----------12---------------------------------|
    B-11^-11-10----10-10-12-10-9-10-8-7-8-6-5\2/5\-|
    G----------------------------------------------|
    D----------------------------------------------|
    A----------------------------------------------|
    E----------------------------------------------|…
  • Tuning: Drop C
    
    Verse part 1
    D|---------------------------------------------------|
    A|---------------------------------------------------|
    F|---------------------------------------------------|
    C|-----2--3--x--0------------------------------------|
    G|----------------3----------------------------------|
    C|--0------------------------------------------------|
    
    Verse…
  • Tuning:1/2 step down
    
    Intro 2x
    eb|-------------------------------------------------|
    Bb|--3--3h5p3---3--------------0--------------------|
    Gb|--0--------4---4-4\0-0-2/4--0--------------------|
    Db|--0-------------------------2-0h2p0--------------|
    Ab|--0----------------------------------------------|
    Eb|-------------------------------------------------|
    
    eb|--3--3h5p3-----------------------------------------------------3-3-3-3-3|
    Bb|--3--3h5p3-----3--------------0--------1-1-1-1-1------1-1-1-1--3-3-3-3-3|
    Gb|--0--0-------4---4-4\0-0-2/4--0--------2-2-2-2-2------0-0-0-0-----------|
    Db|--0---------------------------2-2-0-0--3-3-3-3-3--0h2-2-2-2-2-----------|
    Ab|--0------------------------------------3-3-3-3-3------3-3-3-3--2-2-2-2-2|
    Eb|---------------------------------------------------------------3-3-3-3-3|
    
    Verse…
  • Tuning: Dropped D
    
    KEY       X - PALM MUTE
    	  D - STRUM DOWN
    	  ^ - STRUM UP
              * - LET RING
    
    (FEEDBACK)
    
    Intro
    |---------------------|
    |---------------------|
    |---------------------|X 8
    |0-0-10--0-0-0-0--1-3-|
    |0-0-10--0-0-0-0--1-3-|
    |0-0-10--0-0-0-0--1-3-|…
  • Tuning: Drop D Tuned Down 1/2 Step (Db)
    
    <> - harmonics
    
    INTRO
    Part 1
    Guitar 1
    Eb|-----------------------------------------------|
    Bb|-----------------------------------------------|
    Gb|-----------------------------------------------|
    Db|-----------------------------------------------|
    Ab|---------3---------3-----3---------3-------2-3-|
    Db|-0h2-0h2---0h2-0h2---0h2---0h2-0h2---0h2-2-2-3-|
    
    Eb|-----------------------------------------------|
    Bb|-----------------------------------------------|
    Gb|-----------------------------------------------|
    Db|-----------------------------------------------|
    Ab|---------3---------3-----3---------3-----xx----|
    Db|-0h2-0h2---0h2-0h2---0h2---0h2-0h2---0h2-xx----|
    
    INTRO…
  • Tuning - Drop C
    1-D
    2-A
    3-F
    4-C
    5-G
    6-C
    
    VERSE: GUITAR 1
    D|-------------------------------------------------------------------| x4
    A|-------------------------------------------------------------------|
    F|-------------------------------------------------------------------|
    C|----3---3---3---3---3---3---5---5---2---2---2---2---2---2---0---0--|
    G|--5---5---5---5---5---5---5---5---0---0---0---0---0---0---0---0----|
    C|-------------------------------------------------------------------|…
  • INTRO (Lead)
    e|-----------10--------10---7------|
    B|-----8--8------8--8-----7--------|
    G|---------------------------------|    (X4)Then move this same pattern along
    D|---------------------------------|         the chords…
  • Standard Tuning
    
    Chords I use are: Em, G, D, C, Am
    
    Intro: Em, G, D, C
    
    Verse 1:
    Em           G               D
    Look into my eyes and see my pain
               C                       Em
    Now that I lost what I thought…
  • Tuning:Drop D then down another half-step
    
    Riff:
    
    G#|--------------------------------------------------------------|
    A#|--------------------------------------------------------------|
    F#|------7\8/7-----------8888777---------------------------------|X3
    C#|-0----x-x-x---x-x-x---6666555---------------------------------|
    G#|-0----5\6/5---x-x-x---6666555---------------------------------|
    C#|-0------------x-x-x---6666555---------------------------------|
    
    G#|----------------------------------------------------------------------|
    A#|----------------------------------------------------------------------|
    F#|------7\9\10\12\14/12/10/9--10/9--------------------------------------|X1
    C#|-0----x-x-x--x--x--x--x--x--x--x--------------------------------------|
    G#|-0----5\7\8\-10\12/10/8/-7--8/-7--------------------------------------|
    C#|-0--------------------------------------------------------------------|
    
    Verse:
    
    
    G#|------------------------------------------------------------------------|
    A#|------------------------------------------------------------------------|
    F#|------------------------------------------------------------------------|
    C#|-0~~~~~~~~~~0…
  • Intro & Verse
    
    D--------------------------------------------------|
    A--------------------------------------------------|
    F----------0----------0---------0------------------|   x3
    C-----2-2-0------2-2-0-----2-2-0--3-3-3-3-3-3-3----|
    G----2-2--------2-2-------2-2-----3-3-3-3-3-3-3----|
    C-0h2--------0h2-------0h2--------3-3-3-3-3-3-3----|
    
    Pre-chorus
    
    D--------------------------------------------------|
    A--------------------------------------------------|
    F----------------------------10--------------------|…
  • Tuning: Drop C#
    
    Verse
    D#|------------------|
    A#|------------------|
    F#|------------------|
    C#|------------------|
    G#|------------------|
    C#|---9--6--7--------|
    
    Chorus
    D#|----------------------------|
    A#|----------------------------|
    F#|----------------------------|
    C#|--5--9--5--9--5--9--14-------|
    G#|--5--9--5--9--5--9--14-------|
    C#|--5--9--5--9--5--9--14-------|
    
    Breakdown
    D#|--------------------------------------------|
    A#|--------------------------------------------|
    F#|--------------------------------------------|
    C#|--9--11-12-11-9-7--9-11-9-7-5--7-9-7-5-4----|
    G#|--9--11-12-11-9-7--9-11-9-7-5--7-9-7-5-4----|
    C#|--9--11-12-11-9-7--9-11-9-7-5--7-9-7-5-4----|…
  • tuning - Drop C
    1-D
    2-A
    3-F
    4-C
    5-G
    6-C
    
    VERSE: GUITAR 1
    D|----2~--| x3
    A|--0-----|
    F|--------|
    C|--------|
    G|--------|
    C|--------|
     | "you could have been the real one..."
     |
     |GUITAR 2 COMES IN WITH GUITAR…
  • Intro
    eb-----------------------------------------------------------|
    Bb-----------------------------------------------------------|
    Gb---2----5-2-----0---4-0---------2--2-0-----0---------------|
    Db-2---2------2-0---0-----0---3----------3-----3-------------|
    Ab--------------------------3---3----------3-----------------|
    Db-----------------------------------------------------------|
    
    Intro…
  • Dm  - 557765
    Dm* - 557766
    ---------------------------
    Dm:          Dm*
    ---          ---
    Eb - 5    |  6
    Bb - 6    |  6
    Gb - 7    |  7
    Db - 7    |  7
    Ab - 5    |  5
    Eb - 5    |  5
    
    ===============================================
    
    
    F…
  • Tuning:C,G,C,F,A,D
    
       Intro/Verse....Picked out In D...It changes but you get the idea
    
       "They try to make me go to rehab"................................
    e|----------------------------------------------------------------------------|
    B|----------------------------------------------------------------------------|
    G|-----------7-----------------7----------------------------------------------|
    D|-----7--------5--------7--------5------7---7--------------------------------|
    A|--5----5---------5--5-----5--------5-5---5----------------------------------|
    E|----------------------------------------------------------------------------|…
  • D|-------------|
    A|-------------|
    F|-------------|
    C|-------------|
    G|--0-0---0-0--|
    C|--0-0---0-0--|
        * *   * *
    
    D|---------------------------------------------|
    A|-------------------(4x)-----------------(4x)-|
    F|---------------------5-----------------5-8---|
    C|-3h5p3-0-0-0-0--3--0-5--3h5p3-0-0-0-0--5-8---|
    G|-3h5p3-0-0-0-0--3--0-3--3h5p3-0-0-0-0--3-6---|…
  • Tuning - (low to high) DADGBe
    
    |---------------------------------------------------|
    |---------------------------------------------------|
    |---------------------------------------------------|
    |------12~----------12-13-12------12~---5-5-5-5-5-5-|
    |----0-----------10-------------0-------6-6-6-6-6-6-|
    |--0--------0-10--------------0-------0-------------|
    
    |--13-13-13-13-13-13-12-12-12-13-13-13-------------------------------------|
    |--10-10-10-10-10-10-10-10-10-10-10-10-12-12-12-12-12-12-13-13-13-10-10-10-|
    |--------------------------------------12-12-12-12-12-12-12-12-12-10-10-10-|
    |--------------------------------------------------------------------------|
    |--------------------------------------------------------------------------|
    |--------------------------------------------------------------------------|
    
    |--------------------------------------------------------|
    |--------------------------------------------------------|
    |--------------------------------------------------------|
    |--0-0--0--0-0---0-0--0--0-0---0-0--0--0-0---1-1--1--1-1-|
    |--0-0--0--0-0---0-0--0--0-0---0-0--0--0-0---1-1--1--1-1-|
    |--0-0--0--0-0---0-0--0--0-0---0-0--0--0-0---1-1--1--1-1-|
    
    |----------------------------------|
    |----------------------------------|
    |----------------------------------|
    |--5-5-5-5-5-5-5-5-3-3-3-3-6-6-6-6-|
    |--5-5-5-5-5-5-5-5-3-3-3-3-6-6-6-6-|
    |--5-5-5-5-5-5-5-5-3-3-3-3-6-6-6-6-|
    
    |--13-13-13-13-13-13-12-12-12-13-13-13-------------------------------------|
    |--10-10-10-10-10-10-10-10-10-10-10-10-12-12-12-12-12-12-13-13-13-10-10-10-|
    |--------------------------------------12-12-12-12-12-12-12-12-12-10-10-10-|
    |--------------------------------------------------------------------------|
    |--------------------------------------------------------------------------|
    |--------------------------------------------------------------------------|
    
    |--0-0-0-0-0-0-0-0-0-0-0-0---------------------------------------|
    |--3-3-3-3-3-3-3-3-3-3-3-3---------------------------------------|
    |--2-2-2-2-2-2-2-2-2-2-2-2---------------------------------------|
    |--0-0-0-0-0-0-0-0-0-0-0-0-0-3-0-5-5-5-5-5-5-5-5-3-3-3-3-5-5-5-5-|
    |--0-0-0-0-0-0-0-0-0-0-0-0-0-3-0-5-5-5-5-5-5-5-5-3-3-3-3-5-5-5-5-|
    |--0-0-0-0-0-0-0-0-0-0-0-0-0-3-0-5-5-5-5-5-5-5-5-3-3-3-3-5-5-5-5-|
    
    |----------------------------------|
    |----------------------------------|
    |--4-4-4-4-4-4-4-4-----------------|
    |--4-4-4-4-4-4-4-4-3-3-3-3-1-1-1-1-|
    |--2-2-2-2-2-2-2-2-3-3-3-3-1-1-1-1-|
    |------------------3-3-3-3-1-1-1-1-|
    
    |--13-13-13-13-13-13-12-12-12-13-13-13-------------------------------------|
    |--10-10-10-10-10-10-10-10-10-10-10-10-12-12-12-12-12-12-13-13-13-10-10-10-|
    |--------------------------------------12-12-12-12-12-12-12-12-12-10-10-10-|
    |--------------------------------------------------------------------------|
    |--------------------------------------------------------------------------|
    |--------------------------------------------------------------------------|
    
    |--0-0-0-0-0-0-0-0-0-0-0-0---------------------------------------|
    |--3-3-3-3-3-3-3-3-3-3-3-3---------------------------------------|
    |--2-2-2-2-2-2-2-2-2-2-2-2---------------------------------------|
    |--0-0-0-0-0-0-0-0-0-0-0-0-0-3-0-5-5-5-5-5-5-5-5-3-3-3-3-5-5-5-5-|
    |--0-0-0-0-0-0-0-0-0-0-0-0-0-3-0-5-5-5-5-5-5-5-5-3-3-3-3-5-5-5-5-|
    |--0-0-0-0-0-0-0-0-0-0-0-0-0-3-0-5-5-5-5-5-5-5-5-3-3-3-3-5-5-5-5-|
    
    |--------------------------------------------------------|
    |--------------------------------------------------------|
    |--------------------------------------------------------|
    |--0-0--0--0-0---0-0--0--0-0---0-0--0--0-0---1-1--1--1-1-|
    |--0-0--0--0-0---0-0--0--0-0---0-0--0--0-0---1-1--1--1-1-|
    |--0-0--0--0-0---0-0--0--0-0---0-0--0--0-0---1-1--1--1-1-|…
  • Tuning - Drop C (recording sounds a whole step lower than written)
    1-D
    2-A
    3-F
    4-C
    5-G
    6-C
    
    VERSE: GUITAR 1
    D|--8s10-10s8-8s11-11-10--10-10s8-8s11-10--|--15s17-17s15-15s18-18-17-17b-17-17s15-17s18-18-\--|
    A|--------------------12---------------12--|---------------------------------------------------|
    F|-----------------------------------------|--------------------15-----------------------15-\--|
    C|-----------------------------------------|---------------------------------------------------|
    G|-----------------------------------------|---------------------------------------------------|
    C|-----------------------------------------|---------------------------------------------------|…
  • Drop C tuning (CGCFAD)
    
    Intro:- Guitar 1
    
    e|-----------------------------------------------------------|
    H|-----------------------------------------------------------|
    G|-----------------------------------------------------------|
    D|-6/7-7-7-7/9-9-9-9-9-9-6-6-6-6/7-7-7-7/9-9-9-9-9-9-6-6-6-6-|
    A|-0-0-0-0-0-0-0-0-0-0-0-0-0-0-0-0-0-0-0-0-0-0-0-0-0-0-0-0-0-|…
  • Verse, Pre-Chorus
    G|-----5-----5-----5-----7-5----------------------10p9h10---|
    D|-3-3---3-3---3-3---3-3------6-6-8-6-6-8-6-6-8-9---------0-|
    A|--------------------------------------------------------------|
    D|--------------------------------------------------------------|
    
    Chorus…
  • Tuning:Drop D
    
    
    Intro: 0 - 0:20
    e|-------------------------------------------------------------------------|
    B|-----------------------------------3-3-3-----3-3-3-----------------------|
    G|-----------------------------------2-2-2-----2-2-2--4-4-4-----4-4-4------|
    D|-4-4-4-x-x-4-4-4--4-4-4-x-x-4-4-4--0-0-0-x-x-0-0-0--4-4-4-x-x-4-4-4--2---|
    A|-4-4-4-x-x-4-4-4--4-4-4-x-x-4-4-4--0-0-0-x-x-0-0-0--2-2-2-x-x-2-2-2--2---|
    D|-4-4-4-x-x-4-4-4--4-4-4-x-x-4-4-4--0-0-0-x-x-0-0-0--------x-x--------2---|Repeat…
  • Tuning - Drop C
    1-D
    2-A
    3-F
    4-C
    5-G
    6-C
    
    INTRO: GUITAR 1
    D|--------------------------------------------------------------8--|
    A|--6-----6-----6---5-----5-----5---6-----6-----6---8-----8--------|
    F|----7-7---7-7---7---7-7---7-7---7---7-7---7-7---7---7-7---7-7----|
    C|-----------------------------------------------------------------|
    G|-----------------------------------------------------------------|
    C|-----------------------------------------------------------------|
    
    VERSE:…
  • Tuning:CGCFAD
    INTRO 
    D|---------------------------------------------------------------------------|
    A|---------------------------------------------------------------------------|
    F|---4H5P4----------4H5P4----------------------------------------------------|
    C|--3------3-4-3---3------3-4-3--2-2-4P2-222-2-4P2/-7-7-9P7-777-7------------|
    G|-4------4-------4------4-------2-2-----222-2----/-7-7-----777-7------------|
    C|-------------------------------2-2-----222-2----/-7-7-----777-7------------|…
  • Tuning - Drop C (recording sounds a whole step lower than writen)
    1-D
    2-A
    3-F
    4-C
    5-G
    6-C
    
    INTRO: GUITAR 1+2
    D|---------------------------------------------------------------| x2
    A|---------------------------------------------------------------|
    F|---------------------------------------------------------------|
    C|----------------------------------------------------------3h5--|
    G|--0--3--5-0-3-5-0--3--5-0-3-5-0--3--5-0-3-5-0--3--5-0-3h5------|
    C|--0--3--5-0-----0--3--5-0---5-0--3--5-0-----0--3--5-0----------|
    
    VERSE:…
  • Tuning:Drop C
    
    Order
    Intro(play the Verse)
    Chorusx2
    Verse
    Chorusx2
    verse
    Chorusx2
    Bridge
    Versex4
    Chorusx4
    
    Chorus-Distortion
    e|--------------------------------------------------------------------------|
    B|--------------------------------------------------------------------------|
    G|------5-----5-------------------------------------------------------------|
    D|---0--5--0--5--0--3--0--3--0--3--5--6-------------------------------------|
    A|---0--3--0--3--0--3--0--3--0--3--5--6-------------------------------------|
    E|---0-----0-----0--3--0--3--0--3--5--6-------------------------------------|
    
    e|--------------------------------------------------------------------------|
    B|--------------------------------------------------------------------------|
    G|------5-----5-------------------------------------------------------------|
    D|---0--5--0--5--0--3--0--3--0--6--5--3--0----------------------------------|
    A|---0--3--0--3--0--3--0--3--0--6--5--3--0----------------------------------|
    E|---0-----0-----0--3--0--3--0--6--5--3--0----------------------------------|
    
    e|----------------------------------------------------------------------------|
    B|----------------------------------------------------------------------------|
    G|------5-----5---------------------------------------------------------------|
    D|---0--5--0--5--0--3--0--3--0--3--5--6--5--5--5--5/6--6--6--6--6-------------|
    A|---0--3--0--3--0--3--0--3--0--3--5--6--5--5--5--5/6--6--6--6--6-------------|
    E|---0-----0-----0--3--0--3--0--3--5--6--5--5--5--5/6--6--6--6--6-------------|
    
    Verses-Clean
    e|--------------------------------------------------------------------------|
    B|--------------------------------------------------------------------------|
    G|--------------------------------------------------------------------------|
    D|--------------------------------------------------------------------------|
    A|---5--5--5/3--3/5---------------------------------------------------------|
    E|---5--5--5/3--3/5---------------------------------------------------------|
    
    Bridge-Distortion
    e|--------------------------------------------------------------------------|
    B|--------------------------------------------------------------------------|
    G|---7--7--7/9\7--6--6--6/7\5--4--4--4/5/7----------------------------------|
    D|--------------------------------------------------------------------------|
    A|---5--5--5/7\5--4--4--4/5\3--2--2--2/3/5----------------------------------|
    E|--------------------------------------------------------------------------|…
  • b=bend
    
    this is played throughout the whole song
    e>---------------------------------------------------------<
    B>--13b--11-10-11--8}play 3 times before---15b--16b--20b---<
    G>---------------------------------------------------------<…
  • Tuning: D,A,D,G,B,E
    
    Intro
    e|----------------------------------------------------------------------------
    B|----------------------------------------------------------------------------
    G|----------------------------------------------------------------------------
    D|--1p0-3p00------------------------------------------------------------------
    A|--1p0-3p00------------------------------------------------------------------
    D|--1p0-3p00------------------------------------------------------------------
    
    Verse
    e|---------------------------------------------------------------------------
    B|---------------------------------------------------------------------------
    G|---------------------------------------------------------------------------
    D|--1p0-3p0--x-x-------------------------------------------------------------
    A|--1p0-3p0--x-x-------------------------------------------------------------
    D|--1p0-3p0--x-x-------------------------------------------------------------
    
    Verse…
  • Tuning: Db,Ab,Db,Gb,Bb,Eb (c#)
    
    | ---------------------------------------------------------------
    | ---------------------------------------------------------------
    | -----------------------------5b--------------------------------
    |…
  • (0:00 - 0:09)Intro 
    |--------------------------------| 
    |--------------------------------| 
    |--------------------------------|Repeat 2 
    |----0-------0-------0-----------| 
    |--1---1---0---0---1---1---------| 
    |3-------1-------3-------1---1-2-|…
  • Tuning:CGCFAD
    
    | /   slide up
    | \   slide down
    | h   hammer-on
    | +   harmonic
    | x   Mute note
    
    Intro:
    D|-------------------------------------|
    A|-------------------------------------|
    F|-------------------------------------|
    C|-------------------------------------|
    G|-------------------------------------|
    C|-0-0-0-3(+)-3(+)-3(+)-3(+)-3(+)-3(+)-|
    
    D|-------------------------------------|
    A|-------------------------------------|
    F|-------------------------------------|
    C|-------------------------------------|
    G|-------------------------------------|
    C|-0-0-0-3(+)-3(+)-3(+)-3(+)-3(+)-3(+)-|
    
    D|-------------------------------------|
    A|-------------------------------------|
    F|-------------------------------------|
    C|-------------------------------------|
    G|-------------------------------------|
    C|-0-0-0-3(+)-3(+)-3(+)-3(+)-3(+)-3(+)-|
    
    D|-------------------------------------|
    A|-------------------------------------|
    F|-------------------------------------|
    C|-------------------------------------|
    G|-------------------------------------|
    C|-0-0-0-3(+)-3(+)-3(+)-3(+)-3(+)-3(+)-|
    
    D|-------------------------------------|
    A|-------------------------------------|
    F|-------------------------------------|
    C|-------------------------------------|
    G|-------------------------------------|
    C|-0-0-0-3(+)-3(+)-3(+)-3(+)-3(+)-3(+)-|
    
    D|-------------------------------------|
    A|-------------------------------------|
    F|-------------------------------------|
    C|-------------------------------------|
    G|-------------------------------------|
    C|-0-0-0-3(+)-3(+)-3(+)-3(+)-3(+)-3(+)-|
    
    D|-------------------------------------|
    A|-------------------------------------|
    F|-------------------------------------|
    C|-------------------------------------|
    G|-------------------------------------|
    C|-0-0-0-3(+)-3(+)-3(+)-3(+)-3(+)-3(+)-|
    
    D|-------------------------------------|
    A|-------------------------------------|
    F|-------------------------------------|
    C|-------------------------------------|
    G|-------------------------------------|
    C|-0-0-0-3(+)-3(+)-3(+)-3(+)-3(+)-3(+)-|
    
    Verse:…
Наверх