Аккорды Сектор газа - Из чего же

Добавлено: @romashka
Дата добавления: 21 Марта 2021г.
Рейтинг:
0.0
Просмотров: 29
Транспонировать - +
Главный рифф:
1|-------------------------------
2|-------------------------------
3|-2-х--2-х---2-2-2--------------   } 4 раза
4|-2-х--2-х---2-2-2--------------
5|-0-х--0-х---0-3-0--------------
6|-------------------------------

 A
 Из чего же, из чего же, из чего же
 A
 Сделаны наши мальчишки?

1|-------------------------------
2|-------------------------------
3|-------------------------------
4|-9--9-9--7-9-10--7-------------
5|--------7----------------------
6|-------------------------------

 D5   G5    C5    A5
 Из ножей и из кастетов,
 D5    E5     A5
 Из обрезов и пистолетов
   D5    E5        A5
 Сделаны наши мальчишки!
 D5 E5 A5
1|-------------------------------
2|-------------------------------
3|-2-х--2-х---2-2-2--------------   } 4 раза
4|-2-х--2-х---2-2-2--------------
5|-0-х--0-х---0-3-0--------------
6|-------------------------------
 A
 Из чего же, из чего же, из чего же
 A
 Сделаны наши девчонки?
1|-------------------------------
2|-------------------------------
3|-------------------------------
4|-9--9-9--7-9-10--7-------------
5|--------7----------------------
6|-------------------------------

 D5   G5    C5    A5
 Из сифонов и из лифонов,
 D5    E5     A5
 Из марафета и из миньета
   D5    E5        A5
 Сделаны наши девчонки! } 2 раза
 D5 E5 A5

После этого играется крутое соло, которое
выложу чуть позже
 
 A
 Из чего же, из чего же, из чего же
 A
 Сделан Сектор Газа?
1|-------------------------------
2|-------------------------------
3|-------------------------------
4|-9--9-9--7-9-10--7-------------
5|--------7----------------------
6|-------------------------------

 D5   G5    C5    A5
 Из шприцов, из ханки и плана,
D5    E5     A5
 Из бутылок и стакана
   D5    E5    A5
 Сделан Сектор Газа. } 4 раза

E5 брать на 7 ладу. В куплете также играется главный рифф. Перед тем как играть рифф, послушайте оригинал.
Наверх