Аккорды Semenyak - Мама

Добавлено: @romashka
Дата добавления: 29 Октября 2019г.
Рейтинг:
0.0
Просмотров: 27
Транспонировать - +
Intro:
            М-м-м-м-м-м...
E|----------------------------------------------------------------|
B|--------0---------------0---------------0---------------0-------|
G|----0-------0-------0-------0-------2-------2-------2-------2---|
D|--2---2---2---2---2---2---2---2---1---1---1---1---1---1---1---1-|
A|----------------3---------------2---------------2---------------|
E|0---------------------------------------------------------------|
    Em            C               B7              B7

            М-м-м-м-м-м...
E|--------------------------------------------------|
B|--------0---------------0---------------0---------|
G|----0-------0-------0-------0-------2-------2-----|
D|--2---2---2---2---2---2---2---2---1---1---1---1---|
A|----------------3---------------2---------------2-|
E|0-------------------------------------------------|
    Em            C               B7              B7

Куплет 1:
Em
Я ходил, бродил, искал, любил
B7
Счастье - мне же тоже так нужно его
Em
Улетел - посмел, и надеялся
B7
Только на себя самого

Em
Завела меня тропка дальняя
B7
Заблудился я в тёмном лесу
Em
То ли сорт не сорт, то ли я - не я
B7
Мама, что со мной - никак не пойму

Припев:
Em
Упаду перед тобой на колени я
B7
Тихо-тихо тебя обниму
Em
Ты прости меня, мама, бедного
B7
И не спрашивай, почему

Em
Разбудила меня бессонница
B7
Злые тени мешают спать
Em
Твой сын, мама, прыгнул высоко -
B7
Но так и не научился летать

Проигрыш:
            А-а-а-а-а-а
E|----------------------------------------------------------------|
B|--------0---------------0---------------0---------------0-------|
G|----0-------0-------0-------0-------2-------2-------2-------2---|
D|--2---2---2---2---2---2---2---2---1---1---1---1---1---1---1---1-|
A|----------------3---------------2---------------2---------------|
E|0---------------------------------------------------------------|
    Em            C               B7              B7

    Но так и не научился летать, а-а-а-а-а-а
E|--------------------------------------------------|
B|--------0---------------0---------------0---------|
G|----0-------0-------0-------0-------2-------2-----|
D|--2---2---2---2---2---2---2---2---1---1---1---1---|
A|----------------3---------------2---------------2-|
E|0-------------------------------------------------|
    Em            C               B7              B7

Куплет 2:
Em
Знаю я: человек человеку - волк
B7
Да и то, пока не начал скулить
Em
Обещаю, мам: с меня будет толк
B7
Не придётся тебе слёзы лить

Em
Да, не спрашивай, мама, что со мной -
B7
Твой сын так не любит врать
Em
Давай немного ещё посидим с тобой
B7
Ведь завтра так рано вставать

Припев:
Em
Упаду перед тобой на колени я
B7
Тихо-тихо тебя обниму
Em
Ты прости меня, мама, бедного
B7
И не спрашивай, почему

Em
Разбудила меня бессонница
B7
Злые тени мешают спать
Em
Твой сын, мама, прыгнул высоко -
B7
Но так и не научился летать

Em
А-а-а-а-а-а
B7
Но так и не научился летать
Em
А-а-а-а-а-а
B7
Но так и не научился летать, мама
Em
А-а-а-а-а-а
B7
Но так и не научился летать, мама

Outro:
            М-м-м-м-м-м...
E|----------------------------------------------------------------|
B|--------0---------------0---------------0---------------0-------|
G|----0-------0-------0-------0-------2-------2-------2-------2---|
D|--2---2---2---2---2---2---2---2---1---1---1---1---1---1---1---1-|
A|----------------3---------------2---------------2---------------|
E|0---------------------------------------------------------------|
    Em            C               B7              B7

            М-м-м-м-м-м...
E|--------------------------------------------------|
B|--------0---------------0---------------0---------|
G|----0-------0-------0-------0-------2-------2-----|
D|--2---2---2---2---2---2---2---2---1---1---1---1---|
A|----------------3---------------2---------------2-|
E|0-------------------------------------------------|
    Em            C               B7              B7 

comments powered by Disqus
Наверх