Аккорды Sergey Eyebog - Blow With The Fires

Добавлено: @romashka
Дата добавления: 12 Июня 2022г.
Рейтинг:
0.0
Просмотров: 21
Транспонировать - +
E|----------------------------------------------------------------------------------------------------
B|----------------------------------------------------------------------------------------------------
G|----------------------------------------------------------------------------------------------------
D|-----2-------------------------------2--------------5--------2--3---5-----5---2---------------------
A|-3-------------3----------3----5----------5--3--5-------5--------------------------5--3--5----------
E|----------5---------3------------------------------------------------------------------------3------

E|----------------------------------------------------------------------------------------------------
B|----------------------------------------------------------------------------------------------------
G|----------------------------------------------------------2------------------------------------------
D|-----2-------------------------------2--------------5---------3-----------2----5-------2----------
A|-3-------------3----------3----5----------5--3--5-----------------5----------------5-------3------
E|----------5---------3------------------------------------------------------------------------------

E|--------------------------------------------
B|--------------------------------------------
G|----2---------------------------------------
D|--------3-----------2----5-------2----------
A|------------5----------------5-------3------
E|-------------------------------------------- 

Другая версия:
E | ------0---------------------------0--------------3--------------0---1---1-------1---0--------------------------------------------------------------
B | --1----------1---------------1-------------3---------------3------------------------------3---1---3-----------------------------------------------
G | -------- 2--------0-------------------2------------------------------------------------------------------0-------------------------------------------
D | -------------------------------------------------------------------------------------------------------------------------------------------------------
C | -------------------------------------------------------------------------------------------------------------------------------------------------------
E | --------------------------------------------------------------------------------------------------------------------------------------------------------


E | ------0---------------------------0------------3------------5------------0---3-------0----------------5------------0---3-------0-----------------
B | --1----------1---------------1------------3--------------------6-----------------3--------1--------------6------------------3--------1------------
G | ---------2--------0------------------2-----------------------------7------------------------------------------7--------------------------------------
D | --------------------------------------------------------------------------------------------------------------------------------------------------------
C | --------------------------------------------------------------------------------------------------------------------------------------------------------
E | --------------------------------------------------------------------------------------------------------------------------------------------------------

Вступает Ритм - гитара и Барабаны

E | ------0---------------------------0--------------3--------------0---1---3-------1---0--------------------------------------------------------------
B | --1----------1---------------1-------------3---------------3------------------------------3---1---3------------------------------------------------
G | -------- 2--------0-------------------2------------------------------------------------------------------0-------------------------------------------
D | --------------------------------------------------------------------------------------------------------------------------------------------------------
C | --------------------------------------------------------------------------------------------------------------------------------------------------------
E | --------------------------------------------------------------------------------------------------------------------------------------------------------


E | ------0---------------------------0------------3------------5------------0---3-------0----------------5------------0---3-------0-------------------
B | --1----------1---------------1------------3--------------------6-----------------3--------1--------------6------------------3--------1-------------
G | ---------2--------0------------------2-----------------------------7------------------------------------------7---------------------------------------
D | ---------------------------------------------------------------------------------------------------------------------------------------------------------
C | ---------------------------------------------------------------------------------------------------------------------------------------------------------
E | ---------------------------------------------------------------------------------------------------------------------------------------------------------

Соло

E | --5------------5-------5---7---8---------------12---10---------10----------------------------------------------------------------------------------
B | --------------------------------------------------------------13---------13---12---13---12---------12---------------------------------------------
G | ---------------------------------------------------------------------------------------------------14---------14---12---14---12---------12---14--
D | ----------------------------------------------------------------------------------------------------------------------------------------14--------------
C | ---------------------------------------------------------------------------------------------------------------------------------------------------------
E | ---------------------------------------------------------------------------------------------------------------------------------------------------------


E | ----------------------------------0---------------------------0------------3--------------0---1---1------1---0---------------------------------------
B | ------------------------------1-----------1--------------1------------3--------------3----------------------------3---1---3---------------------------
G | --14------------14---16---------- 2--------0------------------2--------------------------------------------------------------0----------------------
D | ----------------------------------------------------------------------------------------------------------------------------------------------------------
C | ----------------------------------------------------------------------------------------------------------------------------------------------------------
E | -----------------------------------------------------------------------------------------------------------------------------------------------------------


E | ------0---------------------------0------------3------------5------------0---3-------0----------------5------------0---3-------0-----------------
B | --1----------1---------------1------------3--------------------6-----------------3--------1--------------6------------------3--------1------------
G | ---------2--------0------------------2-----------------------------7------------------------------------------7--------------------------------------
D | --------------------------------------------------------------------------------------------------------------------------------------------------------
C | --------------------------------------------------------------------------------------------------------------------------------------------------------
E | --------------------------------------------------------------------------------------------------------------------------------------------------------
Наверх