Аккорды Sergey Eyebog - Blow With The Fires

Добавлено: @romashka
Дата добавления: 12 Июня 2022г.
Рейтинг:
0.0
Просмотров: 18
Транспонировать - +
E|------0---------------------------0--------------3--------------0---1---1-------1---0----------------------
B|--1----------1---------------1-------------3---------------3------------------------------3---1---3--------
G|---------2--------0-------------------2------------------------------------------------------------------0-
D|-----------------------------------------------------------------------------------------------------------
A|-----------------------------------------------------------------------------------------------------------
E|-----------------------------------------------------------------------------------------------------------

E|------0---------------------------0------------3------------5------------0---3-------0----------------5------------0---3-------0-------
B|--1----------1---------------1------------3--------------------6-----------------3--------1--------------6------------------3--------1-
G|---------2--------0------------------2-----------------------------7------------------------------------------7------------------------
D|---------------------------------------------------------------------------------------------------------------------------------------
A|---------------------------------------------------------------------------------------------------------------------------------------
E|---------------------------------------------------------------------------------------------------------------------------------------

Вступает Ритм - гитара и Барабаны:
E|------0---------------------------0--------------3--------------0---1---3-------1---0----------------------
B|--1----------1---------------1-------------3---------------3------------------------------3---1---3--------
G|-------- 2--------0-------------------2------------------------------------------------------------------0-
D|-----------------------------------------------------------------------------------------------------------
A|-----------------------------------------------------------------------------------------------------------
E|-----------------------------------------------------------------------------------------------------------

E|------0---------------------------0------------3------------5------------0---3-------0----------------5------------0---3-------0-------
B|--1----------1---------------1------------3--------------------6-----------------3--------1--------------6------------------3--------1-
G|---------2--------0------------------2-----------------------------7------------------------------------------7------------------------
D|---------------------------------------------------------------------------------------------------------------------------------------
A|---------------------------------------------------------------------------------------------------------------------------------------
E|---------------------------------------------------------------------------------------------------------------------------------------

Соло:
E|--5------------5-------5---7---8---------------12---10---------10-------------------------------------------------------------------------------
B|--------------------------------------------------------------13---------13---12---13---12---------12-------------------------------------------
G|---------------------------------------------------------------------------------------------------14---------14---12---14---12---------12---14-
D|----------------------------------------------------------------------------------------------------------------------------------------14------
A|------------------------------------------------------------------------------------------------------------------------------------------------
E|------------------------------------------------------------------------------------------------------------------------------------------------

E|----------------------------------0---------------------------0------------3--------------0---1---1------1---0-----------------
B|------------------------------1-----------1--------------1------------3--------------3----------------------------3---1---3----
G|--14------------14---16---------- 2--------0------------------2--------------------------------------------------------------0-
D|-------------------------------------------------------------------------------------------------------------------------------
A|-------------------------------------------------------------------------------------------------------------------------------
E|-------------------------------------------------------------------------------------------------------------------------------

E|------0---------------------------0------------3------------5------------0---3-------0----------------5------------0---3-------0-------
B|--1----------1---------------1------------3--------------------6-----------------3--------1--------------6------------------3--------1-
G|---------2--------0------------------2-----------------------------7------------------------------------------7------------------------
D|---------------------------------------------------------------------------------------------------------------------------------------
A|---------------------------------------------------------------------------------------------------------------------------------------
E|---------------------------------------------------------------------------------------------------------------------------------------
Наверх