Аккорды Сергей Никитин - Александра

Добавлено: @vitos
Дата добавления: 12 Сентября 2014г.
Рейтинг:
0.0
Просмотров: 1 016
Транспонировать - +
Вступление: - 2 раза

     A/9
E||--------0--------0--|--------0--------0--|
H||-----------0--------|-----------0--------|
G||-----6--------6-----|-----6--------6-----|
D||--7-----------------|--7-----------------|
A||--------------------|--------------------|
E||--------------------|--------------------|
                                           
   C/9
|--------3--------3--|--------3--------3--||
|-----5-----3h-5-----|-----5-----3h-5-----||
|--5-----------------|--5-----------------||
|--------------------|--------------------||
|--------------------|--------------------||
|--------------------|--------------------||


 A/9                  C#m                     F#7
Не сразу все устроилось, Москва не сразу строилась.
 Hm     C#7    F#m    Hm7     E7     A
Слезам Москва не верила, а верила любви.
 C#7        F#m         F#7        Hm
Снегами запорошена, листвою заворожена,
 E7      A      Hm6/G#      C#7      F#m
Найдет тепло прохожему, а деревцу - земли.


Припев:
  F#7        Hm        Hm7        E7         A
 Александра, Александра, этот город наш с тобою,
  G#7    C#m     F#m6/D#    G#7    Hm    C#7
 Стали мы его судьбою, ты вглядись в его лицо. 
  F#m      F#m+5       G#7       C#7      F#7
 Что бы ни было в начале, утолит он все печали.
  Hm     Hm6     F#m     G#7    C#7    F#m
 Вот и стало обручальным нам Садовое кольцо.


Проигрыш: A/9


Москву рябины красили, дубы стояли князьями,
Но не они, а ясени без спросу выросли.
Москва не зря надеется, что вся в листву оденется,
Москва найдет для деревца хоть краешек земли.


Припев:
 Александра, Александра, что там вьется перед нами?
 Это ясень семенами крутит вальс на мостовой.
 Ясень с видом деревенским приобщился к вальсам венским,
 Он пробьется, Александра, он надышится Москвой.


Москва тревог не прятала, Москва видала всякое,
Но беды все и горести склонялись перед ней.
Любовь Москвы не быстрая, но верная и чистая,
Поскольку материнская любовь других сильней.


Припев:
 Александра, Александра, этот город наш с тобою,
 Стали мы его судьбою, ты вглядись в его лицо.
 Чтобы ни было вначале, утолит он все печали.
  Hm     Hm6    F#m    G#7    C#m7-5   F#7
 Вот и стало обручальным нам Садовое кольцо.
  Hm     Hm6     F#m    G#7     C#7    F#m
 Вот и стало обручальным нам Садовое кольцо.
Наверх