Аккорды Северный Флот - Надвигается Северный Флот

Добавлено: @romashka
Дата добавления: 05 Марта 2018г.
Рейтинг:
0.0
Просмотров: 271
Транспонировать - +
Вступление: 
1)-----7---7---------10---10----------12----12--------------7---7---------10---10----------12----12---------
2)-3/5---5-------5/8----8--------8/10----10-------------3/5---5-------5/8----8--------8/10----10------------

  Em             G               A                 A                                                }  
1)-----7---7---------10---10----------12----12-----12-12-12-10-10-10--12-12-12-10-10-10--12--10--12-} x2
2)-3/5---5-------5/8----8--------8/10----10---------------------------------------------------------}

Куплет:
Em                G
Когда займется рассвет, 
     F                 F
Ты увидишь кружащих ворон
      Am        
Над телами растерзанных, 
 G    /    F         Em        
Вечных, погруженных в сон.

   Em           Em
1)-----7---7---------7---7-
2)-3/5---5-------3/5---5---

Em               G
Их было сотни мечей 
      F              F
На лихих на конях боевых.
         Am
Первым снегом присыпало, 
  G   /   F        Em
Всё что осталось от них.

   Em           Em
1)-----7---7---------7---7-
2)-3/5---5-------3/5---5---

Пре-Припев:
E5   /   D5        A5   /   G5             
Суровый край, непростые времена
E5    /    D5           A5   /   C5
И все,как встарь, кормит воинов война
Em  /  D      Am      /     G
От неудач становились только злей
     Em                       Em           
Так плачь же, мир, увидев тени наших кораблей.

Припев:
   Em                      
 Страха нет, на оскаленных лицах - безумие
 Em                                          
 В крови глаза, ничего, просто бей во все стороны, 
 A
 Бей, бей - не жалей
        G         
 Не сдавайся-не сжалятся 
   Em
 Тьма и свет здесь сегодня танцуют, и видим мы
 Em
 Как в небе ясном застыли чернилами вороны
 A
 Прервали полет.
       G
 Надвигается Северный Флот!

Куплет:
Em         G
Бесшумно идут 
     F                 F
Корабли над холодной водой.
       Am   
Ветром севера созданы 
 G    /    F      Em
Падать на землю бедой.

   Em           Em
1)-----7---7---------7---7-
2)-3/5---5-------3/5---5---

Em              G
И боги тех не спасут,
       F               F
Кто осмелится выйти на бой.
     Am  
На роду им начертано 
   G    /    F        Em 
С жалкой смириться судьбой.

   Em           Em
1)-----7---7---------7---7-
2)-3/5---5-------3/5---5---

Пре-Припев:
E5   /   D5        A5   /   G5             
Суровый край, непростые времена
E5    /    D5           A5   /   C5
И все,как встарь, кормит воинов война
Em  /  D      Am      /     G
От неудач становились только злей
     Em                       Em           
Так плачь же, мир, увидев тени наших кораблей.
 
Припев:
   Em                      
 Страха нет, на оскаленных лицах - безумие
 Em                                          
 В крови глаза, ничего, просто бей во все стороны, 
 A
 Бей, бей - не жалей
        G         
 Не сдавайся-не сжалятся 
   Em
 Тьма и свет здесь сегодня танцуют, и видим мы
 Em
 Как в небе ясном застыли чернилами вороны
 A
 Прервали полет.
       G
 Надвигается Северный Флот!

   Em            G               A                 A                  }
1)-----7---7---------10---10----------12----12------------------------} x2
2)-3/5---5-------5/8----8--------8/10----10---------------------------}
                                              Надвигается Северный Флот!

  Em             G               A                 A                                                }  
1)-----7---7---------10---10----------12----12-----12-12-12-10-10-10--12-12-12-10-10-10--12--10--12-} x4
2)-3/5---5-------5/8----8--------8/10----10---------------------------------------------------------}
              Аи-е-и-е        Аи-е-и-е        Надвигается Северный Флот!

Бой: V v ^ ^ v v v^. В Пре-Припеве можно просто удары вниз.
Наверх