Аккорды Северный Флот - Вперёд и вверх

Добавлено: @romashka
Дата добавления: 18 Января 2021г.
Рейтинг:
0.0
Просмотров: 59
Транспонировать - +
    Dm               Gm               A#                F             C
4:-------------------5-5-5-7-7-7-8-8-8-------------------------------------5-5-5-5-5-
5:--5-5-5-7-7-7-8-8-8-----------------8-8-8-7-7-7-5-5-5---------------3-3-3-3-3-3-3-- x2
6:------------------------------------------------------8-8-8-6-6-6-5----------------

Dm        Gm        A#              F             C
Холодно и пусто для таких, как он в толпе во все года.
Dm         Gm         A#          F         C
Странные и грустные в почете здесь не будут никогда.
Gm                A#              F
Принято думать и делать, как заведено.
Gm               A#             C
Мир этот - место в неинтересном кино.

Fm              G#
Боль моя, подними меня
         Cm               A#
Дай мне силы быть высоко, словно птица.
Fm               G#
Мир пустой за моей спиной,
       Cm             A#
У меня теперь воли нет возвратиться.

Dm             Gm             A#           F        C
Нет желанья слушать, нет желанья больше видеть этот бред.
Dm             Gm        A#          F              C
Страсти, но не души населяют здесь тела сто тысяч лет.
Gm                  A#                 F
Сверху, к тому же, отличный, наверное, вид.
Gm
Солнце в зените.
     A#              C
Эй, люди, смотрите - летит! 

Fm              G#
Боль моя, подними меня
         Cm               A#
Дай мне силы быть высоко, словно птица.
Fm               G#
Мир пустой за моей спиной,
       Cm             A#
У меня теперь воли нет возвратиться.

Dm     Gm      A#    F       C
4:-------------------5-5-5-7-7-7-8-8-8-------------------------------------5-5-5-5-5-
5:--5-5-5-7-7-7-8-8-8-----------------8-8-8-7-7-7-5-5-5---------------3-3-3-3-3-3-3--
6:------------------------------------------------------8-8-8-6-6-6-5----------------

Dm         Gm          A#          F           C
Высоко раскинув руки, он парил над миром, будто стерх.    1:-15- 
Dm         Gm          A#                 F           C   2:----       
Время встало, стихли звуки, он летел от нас вперед и вверх.
1:--15--   1:--15--
2:-15---   2:-15---        
и вверх.  и вверх.

Fm              G#
Боль моя, подними меня
         Cm               A#
Дай мне силы быть высоко, словно птица.
Fm               G#
Мир пустой за моей спиной,
       Cm           A#
У меня теперь воли нет возвратиться.

Fm     G#     Cm      A#
Боль моя... подними меня...
Fm     G#     Cm      A#
Боль моя... подними меня...

  Fm            G#            Cm
5:-3------------6-------------10-10-10--
6:-1--1-1-1-4-3-4--4-4-4-6-4--8--8--8---
Наверх