Аккорды ShaMan - Улетай

Добавлено: @romashka
Дата добавления: 17 Сентября 2021г.
Рейтинг:
0.0
Просмотров: 53
Транспонировать - +
   C#m         A
1|------------------------|
2|-----5-7---------5-7----|
3|------------------------|
4|---6------6----7------7-|
5|-4----------------------|
6|-------------5----------|

   F#m         G#
1|-----------------4------|
2|-----5-4-----------4--5-|
3|---2--------------------|
4|----------4----6--------|
5|------------------------|
6|-2-----------4----------|

C#m                 
Улетай, по небу улетай
A
Улетай, на Бали или Тай
F#m
Пять минут и шаг один за край
G#
Улетай, меня не забывай

C#m
Улетай, весь мир к твоим ногам
A
Мы уже по разным берегам
F#m
Ты молчишь, а что еще сказать
G#
Просто улетай

C#m                B
Улетай на крыльях ветра
              C#m               G#m
Ты в край родной, родная песня наша

- 2 раза.

C#m                  
Улетай, как пуля из АК
A
Сквозь меня и я скажу пока
F#m
Я не знал твоих холодных тайн
G#
Улетай, но сердцем не играй

C#m
Улетай, весь мир к твоим ногам
A
Мы уже по разным берегам
F#m
Ты молчишь, а что еще сказать
G#
Просто улетай

C#m                B
Улетай на крыльях ветра
              C#m               G#m
Ты в край родной, родная песня наша

- 4 раза.

Бой: восьмёрка.
Наверх