Аккорды Shame'n' 'Shame - Весна

Добавлено: @romashka
Дата добавления: 09 Апреля 2020г.
Рейтинг:
0.0
Просмотров: 75
Транспонировать - +
Вступление:
G                                  D

1|----------------3----------------2--------2-----2--------2------
2|-0--------0---------------0----------3--------3-----3--------3--
3|-----0--------0-----0---------0----2--------2-----2--------2----
4|---0--------0-----0---------0----0-----0--------0------0--------
5|----------------------------------------------------------------
6|-3-----3--------3------3----------------------------------------

Em                                 C                               Em      D

1|-----------------0-------------------------------------------------------2-
2|-3--------3--------------3-------3-------3-----1-------1----------0--------
3|-----0--------0------0--------0------0-------0-----0-------0---------------
4|---2--------2------2--------2------2-------2-----2-------2---------------0-
5|-2------2--------2-----2---------3-----3-------3-----3---------------------
6|------------------------------------------------------------------0--------

Припев:

G
У всех весна.
D              Em        C
Налейте чай и дайте полежать,
G
У всех весна.
D                     Em            C
Я не могу с тобой расстаться, о кровать!
Em
И каждый божий день
D
Мне что-то делать лень, 
G
А у всех весна.

Проигрыш:

G                                  D

1|----------------3----------------2--------2-----2--------2------
2|-0--------0---------------0----------3--------3-----3--------3--
3|-----0--------0-----0---------0----2--------2-----2--------2----
4|---0--------0-----0---------0----0-----0--------0------0--------
5|----------------------------------------------------------------
6|-3-----3--------3------3----------------------------------------

Em                                 C                               Em      D

1|-----------------0-------------------------------------------------------2-
2|-3--------3--------------3-------3-------3-----1-------1----------0--------
3|-----0--------0------0--------0------0-------0-----0-------0---------------
4|---2--------2------2--------2------2-------2-----2-------2---------------0-
5|-2------2--------2-----2---------3-----3-------3-----3---------------------
6|------------------------------------------------------------------0--------

Куплет 1:
G
Поспешно вылезают на свободу
D
В кроссовки набирающие воду,
Em
Бегущие из душных помещений
C
В поисках свежих ощущений.
G
И вроде треугольник в две полоски превратился,
D
А я ещё туплю, как Опера.
Em
Стою столбом, а жизнь мимо мчится,
Cadd9
Мне давно проснуться бы пора.

G

Припев:

D              Em        C
Налейте чай и дайте полежать,
G
У всех весна.
D                     Em            C
Я не могу с тобой расстаться, о кровать!
Em
И каждый божий день
D
Мне что-то делать лень, 
G
А у всех весна.

Проигрыш:

G D Em C (х2)

Куплет 2:

G
Старинный друг на письма не ответил.
D
Мне в уши завывает снежный ветер,
Em
И в минус три плюс десять только снится.
C
Навстречу одурманенные лица.
G
И в серых дворах спальных районов
D
Парочки шныряют по кустам.
Em
Бабушки повыползли на солнце
Cadd9
На радость чудом выжившим котам.

Припев:

G
У всех весна.
D              Em        C
Налейте чай и дайте полежать,
G
У всех весна.
D                     Em            C
Я не могу с тобой расстаться, о кровать!
Em
И каждый божий день
D
Мне что-то делать лень, 
G
А у всех весна.

Проигрыш:

G D Em C (х2)

Соло:

   G             D            Em           C

3|----4-----4-------2-----2-------0----0----------------
4|-5----5-5---5--4----4-4---4--2---2-2---2----2-----2-2-
5|-----------------------------------------3----3-3-----

Припев:

G
У всех весна.
D              Em        C
Налейте чай и дайте полежать,
G
У всех весна.
D                     Em            C
Я не могу с тобой расстаться, о кровать!
Em
И каждый божий день
D
Мне что-то делать лень, 
G
А у всех весна!

Capo 2 (for standard tuning)
Наверх