Аккорды Shame'n' 'Shame - Фристайл на репе в два часа ночи

Добавлено: @romashka
Дата добавления: 12 Августа 2020г.
Рейтинг:
0.0
Просмотров: 29
Транспонировать - +
       Am           Dm          G    
1|-----------------1--1-------------------------------------------
2|----1---1--------3--3---------0---0-1-0-------------------------
3|----2---2--------2--2---------0---------2-0---------------------
4|----2---2------0--------------0---------------------------------
5|--0-------------------------------------------------------------
6|----------------------------3-----------------------------------

Аккорды одинаковые на протяжении всей песни.


Am               Dm
Я сижу в подвале, репетирую с группой.
G
Мы только что сменили басиста…
- Знакомьтесь, это Лёха!
Am            Dm
Он нихуя не успевает за темпом, 
   G
Потому что он давно не играл, но у него всё получится, я верю в это.
Am               Dm
Настенька-скрипачка сидит, нас записывает,
- Привет.
G
А вот пришёл Ваня, наш ударник неписанный
- Ну сойдёт…
Am                      Dm
Сейчас мы репаем в подвале какой-то разъёбанной хрущёвки,
G
Но, тем не менее, нам от этого не менее пиздато, ёпта!

Am
Полтора часа ночи.
Dm
Все уже заебались,
G
Короче.
Am
Два часа ночи.
Dm
Все ещё больше заебались,
G
Короче.

Am           Dm          G
В рот я ебал, в рот я ебал, в рот я ебал такую жизнь, эй!

Am             Dm                  
- Никита, блять, отдай мой майк и заткнись.
G
- Ну вещай.

Am                 Dm
Хорош позорить наш грядущий альбом,
G
Я бы вырубила этот трек секунд через тридцать
Am             Dm
После начала. И включила какое-нибудь годное музло,
G
А не это импровизированное мозгоубийство.
Am          Dm
Два часа ночи. Заебались короче.
G
Только вышла покурить, прихожу – а тут Никита.
Хорошо, хоть не дрочит…
Am                    Dm
Этот трек станет лучшим интро в новом альбоме,
G
И пускай за него на нас хейтеры гонят.
Am                           Dm
Я не Noize MC, мой фристайл не блещет техникой и рифмой.
G
Зато я могу говорить всё, что думаю, под Ников рифф! (йау)
Am                      Dm
Мы должны писать альбом – страдаем хуетой.
G
Может, песню написать?
- Да ну, отстой!

Am
Полтора часа ночи.
Dm       G
Заебались, короче.
Am
Два часа ночи.
Dm          G
Заебались, короче.


Solo
       Am          Dm        G    x3                       Конец соло
1|--0h1p0-0------1h3p1-1--------------|--0-1-0-3-1-0-1-0--------------------------------------
2|--------------------------0-1-0-----|------------------1-0---0-1-0-1-0----------------------
3|--------------------------------2-0-|----------------------2--------------------------------
4|------------------------------------|-------------------------------------------------------
5|------------------------------------|-------------------------------------------------------
6|------------------------------------|-------------------------------------------------------

Am                  Dm
Этот трек станет… эта песня сдохнет в архивах инстаграма,
G
Не станет хитом, и никогда не озаглавит
Am                Dm
Списки самых клёвых композиций года.
G
Пускай подыхает.
Ребят, за работу!

Не, ну блять, ну я серьёзно…
- Иди нахуй.
- Ты заебал, Ник…Ты спиздил это соло у анакондаз, чем ты выёбываешься?
- Пока не доказано, не ебёт, чё сказано!
- И бас кривой… Сука, с кем я работаю, блять. Давайте квадрат доиграем и закончим это, пожалуйста, я вас очень прошу, ребят, альбом сам себя не напишет.

Capo 6 
h-hammer on
p-pull off
Наверх