Аккорды Шапито - Письма на лавочке

Добавлено: @romashka
Дата добавления: 08 Января 2022г.
Рейтинг:
0.0
Просмотров: 10
Транспонировать - +
Проигрыш: Am Asus2/G Dsus2/F#  Dm E7 Am Asus2
          Am Asus2/G Dsus2/F#  Dm E7 Bm7-5 E7


     Am  
Позвони мне по номеру
     Dm 
Расскажи мне историю
  Am     Em7     Dm   C#m7-5  
Поцелуи робкие твои, мои
  Bm7-5          E7 
С ветром останутся
  Bm7-5          E7             
В прошлом останутся
 Dm Dsus2 D7sus2


Припев:
 Am   
А ты если хочешь
 Asus2/G            Dsus2/F#  
Пиши если хочешь во сне
 Dm            E7
Письма на лавочке
 Am            Asus2
В старом своем дворе
 Am              
и запах молочный твой
 Asus2/G         Dsus2/F#  
срочно так нужен мне
Dm              E7   Bm7-5      E7
И письма на лавочке, твои письма


       Am  
Вместо рук твоих рядом пыль
       Dm  
Вместо близости стони миль
 Am        Em7            Dm    C#m7-5  
Просыпаюсь ночью весь в поту, ищу  
 Bm7-5            E7
Ищу только не вернуть
 Bm7-5            E7
Забудь ее просто забудь 


Припев (повторяется 3 раза):
 Am   
А ты если хочешь
 Asus2/G            Dsus2/F#  
Пиши если хочешь во сне
 Dm            E7
Письма на лавочке
 Am            Asus2
В старом своем дворе
 Am              
и запах молочный твой
 Asus2/G         Dsus2/F#  
срочно так нужен мне
Dm              E7   Bm7-5      E7
И письма на лавочке, твои письма 

Куплеты начинаются на 5 ладу с баре, после Bm7-5 на открытых струнах, аккорды
    Am     Dm     Em7  C#m7-5(С#Ø) Bm7-5(BØ)  E7   Dm  Dsus2  D7sus2
e ---5------5------7------0-----------X--------0----1----0-------0---
B ---5------6------8------5-----------3--------3----3----3-------1---
G ---5------7------7------4-----------2--------1----2----2-------2---
D ---7------7------9------5-----------3--------2----0----0-------0---
A ---7------5------7------4-----------2--------2----X----X-------X---
E ---5------X------X------X-----------X--------0----X----X-------X---


Припев продолжается на открытых, аккорды в припеве
  Asus2/G   Dsus2/F# 
e ---0---------0-----
B ---0---------3-----
G ---2---------2-----
D ---2---------0-----
A ---0---------0-----
E ---3---------2----- 
Наверх