Аккорды Шары - Запертые

Добавлено: @romashka
Дата добавления: 04 Апреля 2019г.
Рейтинг:
0.0
Просмотров: 99
Транспонировать - +
Для удобства аккорды -3 и капо на 3 лад.
       Cm⠀⠀⠀⠀⠀⠀⠀⠀⠀⠀⠀⠀⠀⠀⠀⠀⠀⠀⠀⠀Fm⠀⠀⠀⠀⠀⠀⠀⠀⠀⠀⠀⠀Fm ↓    ⠀⠀⠀            
-----------------------------------------------1-
---------------4---------------------1---------1-
----------5---------5--------------------------1-
-------5----5----5----5----------3-------------3-
----3-------------------------3----------------3-
-----------------------------------------------1-

       Cm       ⠀⠀⠀⠀⠀⠀⠀⠀⠀⠀⠀⠀⠀⠀⠀             C#m ↓
-----------------------------------------------3------
--------------------4--------------------------3------
--------------5-----------5--------------4-----4------
------------5----5-----5-----5--------5--------5------
---------3---------------------------5---------5------
-----------------------------------------------3------

  Cm                                               G ↓    
--3--3--3--3---------------------------------------3--
----------------6--4--------------4-----------4----3--
------------------------5----5----------3--5-------3--
---------------------------5----5----5-------------5--
------------------------3--------------------------5--
---------------------------------------------------3--

            Cm                                 GmC#m ↓
--3--3--3--3------------------------------------3----3
----------------6--4-------------4------------4-3----3
------------------------5----5----------3--5----3----4
---------------------------5----5----5----------5----5
------------------------3-----------------------5----5
------------------------------------------------3----3

Cm

            G#        G
Там где не светят фонари,
   Cm                          G#        G
Я топлю в бутылке горькой свою жену с детьми.
    Cm                          G#            G
Оставив все что капает на мозг, как кран, позади.
    Cm                 G#           G
Свое тело на съедение клопам, mon ami.

   Cm                G#   G
В попытке саморазрушения напиться,
         Cm                G#         G
Сойти с ума на станции утешения в больнице.
    Cm                     G#         G
В этом колесе Сансары мы как запертые звери 
        Cm                G#          G
В необъятной панораме параллелей и панелей.

   Cm            G#        G
В чьей-то кухне зажжется свет.
   Cm           G#        G
Люди в окнах, как звезды, близки.
   Cm         G#       G
Спящий город задушит снег
 Cm  G#m      G  Cm
Нашей вечной тоски.

Cm                             Fm             Fm ↓
-----------------------------------------------1--
---------------4---------------------1---------1--
----------5---------5--------------------------1--
-------5----5----5----5---------3--------------3--
----3-------------------------3----------------3--
-----------------------------------------------1--

      Cm                         Gm          G ↓
---------------------------------------------3--
------------------4--------------------------3--
------------5-----------5--------------4-----4--
----------5----5-----5-----5--------5--------5--
-------3---------------------------5---------5--
---------------------------------------------3--

    Cm                   A#   G#
Танцуй в припадке просветления,
                       G
На ощупь в полумраке найди дверь.
   Cm                    A#   G#
Наполовину искренние извинения,
                       G
Кто мы друг другу теперь

   Cm            G#        G
В чьей-то кухне зажжется свет.
   Cm           G#        G
Люди в окнах, как звезды, близки.
   Cm         G#       G
Спящий город задушит снег
 Cm  G#m      G   Cm
Нашей вечной тоски.

Cm G# Cm G }x4

   Cm            G#        G
В чьей-то кухне зажжется свет.
   Cm           G#        G
Люди в окнах, как звезды, близки.
   Cm         G#       G
Спящий город задушит снег
 Cm  G#m      G   G#m
Нашей вечной тоски.

        Cm ⠀⠀⠀⠀⠀⠀⠀⠀⠀⠀⠀⠀⠀⠀⠀⠀⠀⠀⠀Fm ⠀⠀⠀⠀⠀⠀⠀⠀⠀⠀⠀Fm ↓
-----------------------------------------------1--
---------------4---------------------1---------1--
----------5---------5--------------------------1--
-------5----5----5----5----------3-------------3--
----3-------------------------3----------------3--
-----------------------------------------------1--

      Cm                         Gm          G ↓
---------------------------------------------3--
------------------4--------------------------3--
------------5-----------5--------------4-----4--
----------5----5-----5-----5--------5--------5--
-------3---------------------------5---------5--
---------------------------------------------3--

  Cm                                               G ↓ 
--3--3--3--3---------------------------------------3-
----------------6--4--------------4-----------4----3-
------------------------5----5----------3--5-------3-
---------------------------5----5----5-------------5-
------------------------3--------------------------5-
---------------------------------------------------3-

   Cm
-----3--3--3--3-------------------------
-------------------6--4-------------4---
--------------------------5----5--------
-----------------------------5----5---5-
--------------------------3-------------
----------------------------------------

    Cm            GmG ↓
-------------------3----3---
-----------4-------3----3---
----3--5-----------3----4---
-------------------5----5---
-------------------5----5---
-------------------3----3---

-----3--3--3--3----------------------------------
-------------------6--4-----4--6-----4--6--4-----
--------------------------5--------5-----------5-
-------------------------------------------------
-------------------------------------------------
-------------------------------------------------
comments powered by Disqus
Наверх