Аккорды Shawn James - Burn The Witch

Добавлено: @romashka
Дата добавления: 25 Сентября 2020г.
Рейтинг:
0.0
Просмотров: 58
Транспонировать - +
[Intro]

E|------------------------------------------|
B|------------------------------------------|
G|------------------------------------------|
D|-------------0----------------------------|
A|---0p2---0p2------0p2---------------------|
E|-0-----3--------0-----3/5-5/7b8r7~--------|

E|------------------------------------------|
B|------------------------------------------|
G|------------------------------------------|
D|-------------0----------------------------|
A|---0p2---0p2------0p2---------------------|
E|-0-----3--------0-----3/2-3/2p0-----------|

The flames lick at my feet

Their hearts full of hate

What they don't understand, they condemn

What they can't comprehend must meet its end

E|------------------------------------------|
B|------------------------------------------|
G|----------------------------0-------------|
D|-------------0----0p2---0p2---------------|
A|---0p2---0p2----0-----3-------------------|
E|-0-----3----------------------------------|

[Primeira Parte]

But I won't scream, won't give them that satisfaction

No I won't confess my false interaction

As I breathe deep and prepare for my passing

I hear them chant, burn the witch

( Em  Am  G  B7 )
( Em  Am  G  B7 )

[Segunda Parte]

           Em  Am  G                 B7              Em  Am  G  B7
I stand accu.......sed of bein' in league with Satan
     Em  Am           G    B7        Em  Am  G  B7
No proo...f for the false accusation
Em  Am            G       B7        Em  Am  G  B7
Ti...ed to the stake, no hope of escape
Em       Am           G      B7        Em  Am  G  B7
I stand alone and embrace my fiery fate

[Primeira Parte]

               Am                             Em
But I won't scream, won't give them that satisfaction
             Am                        Em
No I won't confess my false interaction
             Am                        Em
As I breathe deep and prepare for my passing
            B7              Em
I hear them chant, burn the witch

          Am                                 Em 
Oh I won't scream, won't give them that satisfaction
          Am                   Em
I won't confess my false interaction
                    Am                     Em 
Now as I breathe deep and prepare for my passing
            B7              Em   Am  G  B7
I hear them chant, burn the witch
         Em   Am  G  B7
Burn the witch
         Em   Am  G  B7
Burn the witch
         Em   Am  G  B7
Burn the witch
         Em   Am  G  B7
Burn the witch
Наверх