Аккорды Штрудель - Были танцы (Бьянка cover)

Добавлено: @romashka
Дата добавления: 29 Апреля 2021г.
Рейтинг:
0.0
Просмотров: 137
Транспонировать - +
e|---------------|---------------|----------------|----------------|
B|-6-6-9-9-8-9-6-|-6-6-9-9-8-9-6-|-6-6-8-8-6-6-8--|-6-6-8-8-6-6-8--|
G|---------------|---------------|----------------|----------------|
D|---------------|---------------|----------------|----------------|
A|---------------|---------------|----------------|----------------|
E|---------------|---------------|----------------|----------------|

e|---------------|---------------|----------------|----------------|
B|-6-6-9-9-8-9-6-|-6-6-9-9-8-9-6-|-6-6------------|----------------|
G|---------------|---------------|-----8-10-8--8--|----------------|
D|---------------|---------------|-----------10-10|-8-10-8--8------|
A|---------------|---------------|----------------|-------10-10-8--|
E|---------------|---------------|----------------|----------------|
 
Fm
Как на наш-ем на дворе 
Ой, горели фонари
Db
Были танцы (были танцы)
C
Были танцы (были танцы)
Fm
Под сиреневым кустом
Танцевали всем двором
Bbm
Были танцы (были танцы)
Fm
Всех качало (были танцы)
Fm
В городе нашем есть весёлая улица
Db                      C
Тут парни гламурные, девчонки фигурные
Fm
Никто тут не хмурится, мы дружим всей улицей
Db                      C
Не разлей вода (wow), вместе навсегда (wow)
Fm
Пусть не гаснут фонари, будем слушать r'n'b, ye
Db    C
Eh-e (ow, ow)
Fm                                     Db
Ставить модные пластинки, всех качает вечеринка
C
Yee-ha
Fm          Db           C
Пусть звучит до утра, до утра
(До утра)
Db        C      Fm
Песня развесёлая моя
Fm
Как на нашем на дворе
Ой, горели фонари
Bbm               C
Были танцы (ooh), были танцы (yee)
Fm
Под сиреневым кустом
Танцевали всем двором
Bbm        
Были танцы (eh)
C
Всех качало (yey)
Fm
Как на нашем на дворе
Ой, горели фонари
Bbm
Были танцы (были танцы)
C
Были танцы (были танцы)
Fm
Под сиреневым кустом
Танцевали всем двором
Bbm
Были танцы (были танцы)
Fm
Все в ударе (были танцы)
Fm
Если кому-то бывать здесь приходится
Db                          C
Наш праздник им нравится, моторы заводятся
Fm
Никто не уйдёт на соседнюю улицу
Db                     C
Мы теперь друзья (oh), мы теперь семья (oh)
Fm                                      Db
Пусть не гаснут фонари, будем слушать r'n'b, ye
C
Eh-e (na-na, na-na)
Fm                                      Db
Ставить модные пластинки, всех качает вечеринка
C
(Hey-yey)
Fm           Db           C
Пусть звучит до утра, до утра
(До утра)
Db       C       Fm
Песня развесёлая моя
Fm
Как на нашем на дворе
Ой, горели фонари
Bbm                C
Были танцы (ooh), были танцы (yea)
Fm
Под сиреневым кустом
Танцевали всем двором
Bbm
Были танцы (hey)
C
Всех качало (yey)
Fm
Как на нашем на дворе
Ой, горели фонари
Bbm
Были танцы (были танцы)
C
Были танцы (были танцы)
Fm
Под сиреневым кустом
Танцевали всем двором
Были танцы (были танцы)
Все качало (были танцы)
Fm
Были, были, были, были, были, были танцы
Bbm                       C
Были, были, были, были, были, были танцы
Cm
(Ow, ow-ow-ow)
Bbm     Fm
(Ow)
Fm
Были, были, были, были, были, были танцы
Bbm                       C
Были, были, были, были, были, были танцы
Fm
(Ow, ow-ow-ow)
Bbm      C
(Ow)
Fm          Db           C
Пусть звучит до утра, до утра
(До утра звучит)
Db       C       Fm
Песня развесёлая моя
Наверх