Аккорды Side A - Forevermore

Добавлено: @romashka
Дата добавления: 19 Января 2017г.
Рейтинг:
0.0
Просмотров: 129
Транспонировать - +
(Enter during end of first Chorus) 
------9--9-----9--9--| 
---------------------| 
--s7--------s7-------| 
---------------------| 
 
             All those years... 
--------------------------------------------| 
--9-8-6-----------------------------7-------| 
--------9-7--7-6--6-4--4--------5s7-------2-| 
-------------------------7--7-5--------2----| 
 
Every night.... 
-----------------------------------------8s9---8s9-----------------| 
----------------------------11---------6-----------4---------------| 
-7--7-6--6-4--4--------5s11------2-3-4-----------------2---------2-| 
----------------7--7-5--------2----------------------2----5-4--4---| 
 
You were just a dream... 
--------------9-----------------------------------11s12--11-------9-| 
---------9s11----9s11--9-----------------------9------------9s11----| 
-7------------------------7-------------2--s7-----------------------| 
----4--5--------------------4--5--4--2------------------------------| 
 
You're all I need.. 
-----------------------------------| 
-----------------------------------| 
----4----2---7--------7-----zoom12-| 
-4----2------------7---------------| 
 
Time and again... 
------------------------------------------------7-------5-------| 
---------------------5-4--2---------2-4-5---7s9-----3s5---------| 
-3--5-2--5-7----5-------------2-4-5---------------3-----------5-| 
--------------5---3---------5------------------------------5----| 
 
(Adlib) 
---------------------------------9-| 
----s13--13s14--11--11-9----9s11---| 
-7---------------------------------| 
-------------------------5---------| 
 
 
-------------13-----11-----8--8-9-8---------| 
-----------9------8------6----------9s11----| 
---2-4-6-7------6------4--------------------| 
-2------------------------------------------| 
 
            I just cant believe... 
------------8s9---8s9-----------------| 
----------6-----------4---------------| 
----2-3-4-----------------2---------2-| 
-2----------------------2----5-4--4---| 
 
 
You were just... 
-----------------------------------11s13-11--11s13-9-| 
---------------------------------9-------------------| 
-7-----------2--7-----------2--7---------------------| 
----4--5-4-2-------4--5-4-2--------------------------| 
 
 
(bass reenters at) 
..be with forevermore.. 
------------------------------------------| 
------------------------------------------| 
------5---4---2s4-2------5---------4---2--| 
-2--5---4---2-------5--4---6--5--4---2----| 
 
(outro) 
-----9-----------11s9-| 
-7s9------------------| 
----------------------| 
-----------7s0--------|
Наверх