Аккорды Сколот - Ночь после боя

Добавлено: @romashka
Дата добавления: 15 Января 2019г.
Рейтинг:
0.0
Просмотров: 32
Транспонировать - +
            Am                              F                         Dm                             G
      Ночью после боя              Дымом пахнет воздух.         В небе надо мною.          Чуть мерцают звезды.
E------------------------------------------------1-----------1-----1--1--1р0--0--------0р1р0-----------------0----
B-----1--1--1--0--0--------0р1р0--------------1-----1--------1-------------------3------------3---3--3--1р3-----3-
G--------------------2------------2--------2-----------2----------------------------2-----------------------------
D-----------------------2---------------3-----------------3--------0----------------------------------------------
A-----0------------------------------3----------------------------------------------------------------------------
E-------------------------------------------------------------------------------------------------3---------------

             Am                                F                          Dm                        G
      Тихо тихо ночью               В поле после сечи:             Ветер стих восточный,      Кони ржут далече.
E------------0------------------------------------1-----------1-----1--1--1р0--0--------0р1р0-----------------0----
B-----1------------1--------0р1р0--------------1-----1--------1-------------------3------------3---3--3--1р3-----3-
G--------2------2-----2------------2--------2-----------2----------------------------2-----------------------------
D-----------------------2---------------3-----------------3---------0----------------------------------------------
A-----0------------------------------3-----------------------------------------------------------------------------
E-------------------------------------------------------------------------------------------------3----------------

             Am                                F                          Dm                        G
      Где-то рядом сонно             Вскрикивает птица.             ...А меня ждут дома,      Мне ж не воротиться.
E------------------------------------------------1-----------1-----1--1--1р0--0--------0р1р0-----------------0----
B-----1--1--1--0--0--------0р1р0--------------1-----1--------1-------------------3------------3---3--3--1р3-----3-
G--------------------2------------2--------2-----------2----------------------------2-----------------------------
D-----------------------2---------------3-----------------3--------0----------------------------------------------
A-----0------------------------------3----------------------------------------------------------------------------
E-------------------------------------------------------------------------------------------------3---------------

            Am                              F                         Dm                             G
        Мне б дойти до дома,        Да кольчуга рвана,           Меч булатный сломан,       Да под сердцем рана.
E------------0------------------------------------1-----------1-----1--1--1р0--0--------0р1р0-----------------0----
B-----1------------1--------0р1р0--------------1-----1--------1-------------------3------------3---3--3--1р3-----3-
G--------2------2-----2------------2--------2-----------2----------------------------2-----------------------------
D-----------------------2---------------3-----------------3---------0----------------------------------------------
A-----0------------------------------3-----------------------------------------------------------------------------
E-------------------------------------------------------------------------------------------------3----------------

             Am                                F                          Dm                        G
       Кровь капелью алой             На траву стекает...             Отчего ж усталость      Вдруг пришла такая?
E------------------------------------------------1-----------1-----1--1--1р0--0--------0р1р0-----------------0----
B-----1--1--1--0--0--------0р1р0--------------1-----1--------1-------------------3------------3---3--3--1р3-----3-
G--------------------2------------2--------2-----------2----------------------------2-----------------------------
D-----------------------2---------------3-----------------3--------0----------------------------------------------
A-----0------------------------------3----------------------------------------------------------------------------
E-------------------------------------------------------------------------------------------------3---------------

            Am                              F                         Dm                             G
       Мне б еще отсрочку           Выпросить у смерти:           Пережить бы ночку         Да рассвет бы встретить.
E------------0------------------------------------1-----------1-----1--1--1р0--0--------0р1р0-----------------0----
B-----1------------1--------0р1р0--------------1-----1--------1-------------------3------------3---3--3--1р3-----3-
G--------2------2-----2------------2--------2-----------2----------------------------2-----------------------------
D-----------------------2---------------3-----------------3---------0----------------------------------------------
A-----0------------------------------3-----------------------------------------------------------------------------
E-------------------------------------------------------------------------------------------------3----------------

             Am                                F                          Dm                        G
        Кромка золотая                 Вспыхнет над горою -           Улыбнусь тогда я        И глаза закрою.
E------------------------------------------------1-----------1-----1--1--1р0--0--------0р1р0-----------------0----
B-----1--1--1--0--0--------0р1р0--------------1-----1--------1-------------------3------------3---3--3--1р3-----3-
G--------------------2------------2--------2-----------2----------------------------2-----------------------------
D-----------------------2---------------3-----------------3--------0----------------------------------------------
A-----0------------------------------3----------------------------------------------------------------------------
E-------------------------------------------------------------------------------------------------3---------------

            Am                              F                         Dm                             G
        А душа куда-то               С ветром унесется.           По траве примятой          Под лучами солнца
E------------0------------------------------------1-----------1-----1--1--1р0--0--------0р1р0-----------------0----
B-----1------------1--------0р1р0--------------1-----1--------1-------------------3------------3---3--3--1р3-----3-
G--------2------2-----2------------2--------2-----------2----------------------------2-----------------------------
D-----------------------2---------------3-----------------3---------0----------------------------------------------
A-----0------------------------------3-----------------------------------------------------------------------------
E-------------------------------------------------------------------------------------------------3----------------

             Am                                F                          Dm                        G
        Заблестят не росы            На зеленом шелке -           Алых капель россыпь,        Как зари осколки.
E------------------------------------------------1-----------1-----1--1--1р0--0--------0р1р0-----------------0----
B-----1--1--1--0--0--------0р1р0--------------1-----1--------1-------------------3------------3---3--3--1р3-----3-
G--------------------2------------2--------2-----------2----------------------------2-----------------------------
D-----------------------2---------------3-----------------3--------0----------------------------------------------
A-----0------------------------------3----------------------------------------------------------------------------
E-------------------------------------------------------------------------------------------------3---------------

            Am                              F                         Dm                             G
          Годы все, что было,           Пеленой покроют,          Зарастут могилы              Шелковой травою.
E------------0------------------------------------1-----------1-----1--1--1р0--0--------0р1р0-----------------0----
B-----1------------1--------0р1р0--------------1-----1--------1-------------------3------------3---3--3--1р3-----3-
G--------2------2-----2------------2--------2-----------2----------------------------2-----------------------------
D-----------------------2---------------3-----------------3---------0----------------------------------------------
A-----0------------------------------3-----------------------------------------------------------------------------
E-------------------------------------------------------------------------------------------------3----------------

            Am                              F                         Dm                             G
          Но навеки в травах           Сохранится память          Россыпью кровавой -           Алыми цветами.
E------------------------------------------------1-----------1-----1--1--1р0--0--------0р1р0-----------------0----
B-----1--1--1--0--0--------0р1р0--------------1-----1--------1-------------------3------------3---3--3--1р3-----3-
G--------------------2------------2--------2-----------2----------------------------2-----------------------------
D-----------------------2---------------3-----------------3--------0----------------------------------------------
A-----0------------------------------3----------------------------------------------------------------------------
E-------------------------------------------------------------------------------------------------3---------------
comments powered by Disqus
Наверх