Аккорды Slapshot - Bigmouth Strikes Again

Добавлено: @romashka
Дата добавления: 01 Апреля 2018г.
Рейтинг:
0.0
Просмотров: 211
Транспонировать - +
Tuning: Standard

VERSE/CHORUS
e|---------------------------------------------------------------------------|
B|---------------------------------------------------------------------------|
G|---------------------------------------------------------------------------|
D|---------7-77--9-99--------------------------------------------------------|
A|-99-999--5-55--7-77--99-9/10/9--5-55--7-77---------------------------------|
E|-77-777--------------77-7-8--7--3-33--5-55---------------------------------|

BRIDGE
e|---------------------------------------------------------------------------|
B|---------------------------------------------------------------------------|
G|---------------------------------------------------------------------------|
D|---------------------------------------------------------------------------|
A|-7-77-77--55-5--7-77-77--99-101010-----------------------------------------|
E|-5-55-55--33-3--5-55-55--77-8-8-8------------------------------------------|

The song structure is simple: 
VERSE/CHORUS x20
BRIDGE x2
VERSE/CHORUS x15
Наверх