Аккорды Slapshot - L.O.S.E.R.

Добавлено: @romashka
Дата добавления: 01 Апреля 2018г.
Рейтинг:
0.0
Просмотров: 209
Транспонировать - +
Pre/Verse
E|--------------------------------------------------------------------------------------|
B|--------------------------------------------------------------------------------(x )--|
G|--4-4-4-4-----------7-7-7-7--9-9-9-9--------------------------------------------------|
D|--4-4-4-4--4-4-4-4--7-7-7-7--9-9-9-9--------------------------------------------------|
A|--2-2-2-2--4-4-4-4--5-5-5-5--7-7-7-7--------------------------------------------------|
E|-----------2-2-2-2--------------------------------------------------------------------|

   Chorus
E|---------------------------------------|-----------------------------------|
B|---------------------------------(x3)--|-----------------------------------|
G|--4-5-5-5-5--2-2-2-2--4-4-4-4-4--------|--4-5-5-5-5--2-2-2-2--9-9-9-9------|
D|--4-5-5-5-5--2-2-2-2--4-4-4-4-4--------|--4-5-5-5-5--2-2-2-2--9-9-9-9------|
A|--2-3-3-3-3--0-0-0-0--2-2-2-2-2--------|--2-3-3-3-3--0-0-0-0--7-7-7-7------|
E|---------------------------------------|-----------------------------------|

   Repeat Verse/Chorus

   Break
E|---------------------------------------------------------------------------|
B|---------------------------------------------------------------------(x4)--|
G|--6-5-4----------------6-5-4-----------------------------------------------|
D|--6-5-4-5--4-4-4-4-4---6-5-4-5--7-7-7-7-7----------------------------------|
A|--4-3-2-5--4-4-4-4-4---4-3-2-5--7-7-7-7-7----------------------------------|
E|--------3--2-2-2-2-2---------3--5-5-5-5-5----------------------------------|

   Repeat Verse/Chorus

   Outro
E|---------------------------------------------------------------------------||
B|---------------------------------------------------------------------------||
G|--6-5-4--------------------------------------------------------------------||
D|--6-5-4--5-4---------------------------------------------------------------||
A|--4-3-2--5-4---------------------------------------------------------------||
E|---------3-2---------------------------------------------------------------||
Наверх