Аккорды Slapshot - Watch Me Bleed

Добавлено: @romashka
Дата добавления: 01 Апреля 2018г.
Рейтинг:
0.0
Просмотров: 243
Транспонировать - +
Intro/verse
e|-----------------------------
B|-----------------------------
G|-6---------------------------
D|-6 X8---7------4-------------
A|-4------7-X4---4-X4---------
E|--------5------2-------------

 Chorus- timing might be a little off just listen for it
e|-----------------------------
B|-----------------------------
G|-----------------------------
D|-666--4-6-77777-------------
A|-666--4-6-77775-------------
E|-444--2-4-55555-------------

 Break thing (at 1:05) listen for timing again
E|-----------------------------
B|-----------------------------
G|-6-6-6--6-7-11-12----11-----
D|-4-6-4--4-9-11-12-X5-11-X5--
A|-4-4-4--4-9- 9 -10-----9-----
E|-----------------------------

and that's it-just play the verse under the solo
Наверх