Аккорды Slapshot - What's At Stake

Добавлено: @romashka
Дата добавления: 01 Апреля 2018г.
Рейтинг:
0.0
Просмотров: 231
Транспонировать - +
Tuning: Standard

INTRO
e|-------------------------------------------|
B|-------------------------------------------|
G|-------------------------------------------|
D|--77-7------77-7------77-7------77-7-------|
A|--55-5------55-5------55-5------55-5-------|
E|-------------------------------------------|

VERSE
e|------------------------------------------|
B|------------------------------------------|
G|------------------------------------------|
D|--7--5--8--5--5-7-8--7-77-7-777777-7------|
A|--5--3--6--3--3-5-6--5-55-5-555555-5------|
E|------------------------------------------|(play first time, after play the muted part first)
                         --   ------

CHORUS
e|----------------------------------------------------------|
B|----------------------------------------------------------|
G|----------------------------------------------------------|
D|--5----5/6\5--5----5/6\5--5----5/6\5--5----8888-8888------|
A|--3----3/4\3--3----3/4\3--3----3/4\3--3----6666-6666------|
E|----------------------------------------------------------|

SONG STRUCTURE:

INTRO
VERSE x10
CHORUS
VERSE x8
CHORUS
VERSE x8
CHORUS
VERSE x4

************************************

| /   slide up
| \   slide down
| -   palm mute

************************************
Наверх