Аккорды «Slick Shoes»

Slick Shoes
Slick Shoes - поп панк группа с христианским прошлым из Antelope Valley. Название группы ссылается на популярный фильм 1985 года "Балбесы", 'slick shoes' это одно из приспособлений персонажа Data. Группа была сформирована в 1994 году и первую запись - одноименную EP выпустили в 1997. Всего группа выпустила 5 альбомов, 4 из которых на лейбле Tooth & Nail. Так же они выпустили EP - сплит с Autopilot Off и компиляцию лучших хитов The Biggest & The Best, включавшую в себя 3 прежде неизданных трека.… Читать полностью... Slick Shoes - поп панк группа с христианским прошлым из Antelope Valley. Название группы ссылается на популярный фильм 1985 года "Балбесы", 'slick shoes' это одно из приспособлений персонажа Data. Группа была сформирована в 1994 году и первую запись - одноименную EP выпустили в 1997. Всего группа выпустила 5 альбомов, 4 из которых на лейбле Tooth & Nail. Так же они выпустили EP - сплит с Autopilot Off и компиляцию лучших хитов The Biggest & The Best, включавшую в себя 3 прежде неизданных трека. Стиль SS можно охарактеризовать как быстрый и мелодичный панк с жестким хардкор звучанием. Группа за все время своего существования претерпела множество изменений в составе, неизменными оставались только вокалист Ryan Kepke и барабанщик Joe Nixon, так же бас-гитарист Jeremiah Brown отыграл на всех альбомах кроме последнего Far From Nowhere. Это была их первая запись уже не под опекой Tooth & Nail, которую они покинули не по религиозным причинам, а лишь потому что их контракт завершился и группа решила что им требуются изменения. Таким образом Far From Nowhere был выпущен на SideOneDummy Records летом 2003. Группа имела успех на Христианской панк рок сцене конца 90х - начала 00х, турила с такими известными командами как Face to Face и MxPx и принимала участие на Vans Warped Tour'03. После тура в 2003 - начале 2004 в поддержку Far From Nowhere группа бездействовала и 7 октября 2006 года на страничке MySpace группы появилось сообщение что участники взялись за сайд проект, под названием Sigmund и что Slick Shoes отправляются в "бессрочный отпуск". Затем, спустя 15 месяцев появилось сообщение что группа возвращается в оригинальном составе, так группа отыграла свое первое шоу в декабре 2007 и последнее в апреле 2008. Дискография: Slick Shoes EP (21 января, 1997) Rusty (24 июня, 1997) Burn Out (7 июля, 1998) Wake Up Screaming (23 мая, 2000) Slick Shoes/Cooter Split EP (23 мая, 2000) Slick Shoes (9 апреля, 2002) Far From Nowhere (8 июля, 2003) The Biggest and the Best (18 ноября, 2003) Скрыть...
Популярные аккорды Slick Shoes:
алфавиту | просмотрам | случайно
  • Tuning:standard
    
    INTRO(rythm and lead):
    e|--------------------------------------------------------------------------|
    B|--------------------------------------------------------------------------|
    G|-55555555-5555555---------------------------------------------------------|
    D|-55555555-5555555---------------------------------------------------------|
    A|-33333333-3333333---------------------------------------------------------|
    E|--------------------------------------------------------------------------|…
  • G:-------------------------------------------------------------------------
    D:-------------------------------------------------------------------------
    A:---3-------0------------(listen carefully for rhythm)--------------------
    E:-------1-------1---3-----------------------------------------------------
    
    
    G:----------------------------|---------------------------------------------
    D:----------------------------|---------------------------------------------
    A:---3-------5---7---8---10---|---3-------5---7---8---10---8---7---8---7---8…
  • intro(come in second time round)
    |----------------------------------------|
    |-----------------222-33-33-222----------|
    |-55-55-000-11-11--------------33-33-000-|x1
    |----------------------------------------|
    
    verse 1
    |-----------------------------------|
    |-----------------------------------|
    |-55555555-11111111--------33333333-|x4
    |------------------11111111---------|
    
    chorus
    |----------------------------------------|
    |-----------------222-33-33-222----------|
    |-55-55-000-11-11--------------33-33-000-|x2
    |----------------------------------------|
    
    verse…
  • Intro(x2)... it should be pretty close
    G|-8-----8-----8---6-----6-----6----
    D|---9-9---9-9---9---8-8---8-8---8--
    A|----------------------------------
    E|----------------------------------
    
    
    G|-4-----4-----4---3-----3-----3----
    D|---6-6---6-6---6---4-4---4-4---4--
    A|----------------------------------
    E|----------------------------------
    
    
    G|-4-----4-----4---3-----3-----3----
    D|---2-2---2-2---2---4-4---4-4---4--
    A|----------------------------------
    E|----------------------------------
    
    
    G|-4-----4-----4---4-------3--------
    D|---2-2---2-2---2---6-6-6---4-4-4--
    A|----------------------------------
    E|----------------------------------
    
    Then
    G|------------------------------------
    D|------------------------------1--1-2
    A|-2>-1>----------------2-1-2-4--4----
    E|-------4>-2>-0>-4>-2>---------------
    Play…
  • G:----------------------|----------------------------------------
    D:----------------------|----------------------------------------
    A:----------------------|---3---5--------------------------------
    E:---3----5----6----3---|-----------6----------------------------
    
    
    G:---------------------------------------------------------------
    D:---------------------------------------------------------------
    A:---5---------------4(second…
  • G:---------------------------------------------------------------
    D:---------------------------------------------------------------
    A:---------------------------------------------------------------
    E:---4----2---0--------------------------------------------------
    
    
    G:-------------------------|-------------------------------------
    D:-------------------------|-------------------------------------
    A:------------2---4--------|----------2---2---1------------------
    E:---4---0------------0----|--4---2---------------0--------------
    
    
    G:------------------|------FILL----------------------------------
    D:------------------|--------------------------------------------
    A:---------6---7----|---7---6---4---6----------------------------
    E:---4--------------|--------------------4-----------------------
    
    
    G:-----------------------BRIDGE-THING----------------------------
    D:---------------------------------------------------------------
    A:---------------------------------------------------------------
    E:-----4----6----7----0-----2------------------------------------
    
    
    G:-------------------------OUTTRO--------------------------------
    D:---------------------------------------------------------------
    A:-----------1------2--------------------------------------------
    E:-----4---------------------------------------------------------…
  • Intro:
    (7x's)
    e-----
    B-----
    G-----
    D---7-
    A---7-
    E--5--
    
    Verse:
    (palm muted 4x's)
    e----------
    B----------
    G--------7-
    D--7--4--7-
    A--7--4--5-
    E--5--2----
    
    Bridge:
    
    e--------------
    B--------------
    G--6--------7--
    D--6-(mute)-7--(let…
  • *Play 16 times
    
    Intro (0:00)
    G-----------------------------------------------------------
    D-----------------------------------------------------------
    A-3-3-3-3-5-5-5-5-5-2-2-2-2-2-0h7-0h7-9-5-3-3-3-3-5-5-5-5-5-
    E-----------------------------------------------------------
    
    Verse…
  • Intro....
    1----------------------------------------------------------------------------
    2----------------------------------------------------------------------------
    3-6-6-6-6h7p6---9-9--9-7-7-7---6-6-6-6h7p6---4--4--4-1-2-4-------------------
    4-------------7-----------------------------7--------------------------------
    5----------------------------------------------------------------------------
    6----------------------------------------------------------------------------
    
    1----------------------------------------------------------------------------
    2----------------------10-9--------------------------------------------------
    3-6-6-6-6h7p6---9-9--9-----9---6-6-6-6-6-4-2-1~------------------------------
    4-------------7------------------------7-6-4-2~------------------------------
    5----------------------------------------------------------------------------
    6----------------------------------------------------------------------------
    
    Verse…
  • Standard tuning
    
    *KEY*
    *-harmonics
    ()-let ring
    /-slide up
    -slide down
    p.m.-palm mute
    
    Intro:
    e-------------------------------------------------------
    B-------------------------------------------------------
    G---(9)--9(7)--7/(9)--9(7)--7/(9)--9/(12)(11)(7)-/--
    D---(9)--7(7)--7/(9)--9(7)--7/(9)--9/(12)(11)(7)-/--
    A---(7)--7(5)--5/(7)--7(5)--5/(7)--7/(10)(…
  • G:----------------------|--------------------------------------------
    D:----------------------|--------------------------------------------
    A:----5---7---10---12---|----5---7---9--------(this part may be wrong)
    E:----------------------|----------------5----(play…
  • G:--------------------------------------------------------------------
    D:--------------------------------------------------------------------
    A:--------------------------------------------------------------------
    E:---2---7---2---7-------(occasionally…
Наверх