Аккорды Слот - 2 Капли

Добавлено: @romashka
Дата добавления: 15 Апреля 2013г.
Рейтинг:
5.0
Просмотров: 618
Транспонировать - +
Вступление/Куплет:

E|---------------------------------------------|
B|---------------------------------------------|
G|---------------------------------------------|
D|---------------------------------------------|
A|------7-4--4--4-4-5-4--------7-4--4--4-4-5-4-|
E|-5--5------------------5--5------------------|

E|-----------------------------|
B|-----------------------------|
G|------6-4--4-4-4--2-2--4-4-4-|
D|-----------------------------|
A|-5--5------------------------|
E|-----------------------------|

Ледяная вода тридцать первого дня
Отделяет года и тебя от меня.
Несмешное кино об упавшей листве.
Выдыхаясь, вино расплескалось на две капли в море...

Окно застыло, а птицы недопели.
Я помню это было все на самом деле...

Мы в нем утонем...

Тепло от рук осталось на упругом теле.
И мне не показалось - все на самом деле...

Две капли в море...

Кино остановилось на интересном месте,
А память пригодилась, я помню - были вместе

Мы в нем утонем...

Я помню было лето. Мы одного хотели.
Но все осталось где-то. Все на самом деле...

Иду на маскарад...
Искать твой зимний взгляд...

Припев:
A5                            F#5
Мы опять у этой призрачной черты
                            A5
И Новый Год несет надежду всем.
                           F#5
Он мне не нужен, если рядом ты
                       E5     D5
И не поможет, если тебя нет...

Только дай на секунду заглянуть в глаза,
И твой язык не повернется слово "нет" в ответ сказать. 

Телефон без звонка и война без потерь.
Мы живые пока. Приоткрытую дверь
Не захлопнет рука без царя в голове.
Извиваясь, река расплескалась на две капли в море...

Дед Мороз, конфетти - не пройти:
Столько лиц на пути...

Мы в нем утонем...

И все как в припадке - шатки.
Тебя не найти в этой лихорадке.

Две капли в море...

Одна только цель - твоей улыбки щель
Я так жду, я хочу улыбки щель...

Мы в нем утонем...

Мы отсюда уйдем. Бегом. Тайком.
И только вдвоем...

Припев
comments powered by Disqus
Наверх