Аккорды Sonic Death - Горькие слёзы

Добавлено: @romashka
Дата добавления: 31 Октября 2019г.
Рейтинг:
0.0
Просмотров: 25
Транспонировать - +
Solo:
e----------|----------------|----------------|----|----|----|----|----|
B----------|----------------|----------------|----|----|----|----|----|
G--5--3L---|--3-------------|----------------|----|----|----|----|----|
D--5--3L---|--3-------------|----------------|----|----|----|----|----|
A----------|----------------|----------------|----|----|----|----|----|
E----------|----------------|----------------|----|----|----|----|----|

----|----|----|----|----|----------------|----------------|----------------|
----|----|----|----|----|----------------|----------------|----------------|
----|----|----|----|----|--5s-3----------|--3--3--5--7----|--5--3--5--0L---|
----|----|----|----|----|--5s-3----------|--3--3--5--7----|--5--3--5--0L---|
----|----|----|----|----|----------------|----------------|----------------|
----|----|----|----|----|----------------|----------------|----------------|

----------------|----|----------------|----------------|----------------|
----------------|----|----------------|----------------|----------------|
--0--5--0-------|----|--5s-3----------|----3--3--5--7--|--5--3--5--0L---|
--0--5--0-------|----|--5s-3----------|----3--3--5--7--|--5--3--5--0L---|
----------------|----|----------------|----------------|----------------|
----------------|----|----------------|----------------|----------------|

----------------|-------|----|----|----|----|----|----|----|----------|----|
----------------|-------|----|----|----|----|----|----|----|----------|----|
--0L-0--5--0L---|--0----|----|----|----|----|----|----|----|----------|----|
--0L-0--5--0L---|--0----|----|----|----|----|----|----|----|----------|----|
----------------|-------|----|----|----|----|----|----|----|----------|----|
----------------|-------|----|----|----|----|----|----|----|----------|----|

Rythm:
E|-------------|-------------|-------------|-------------|
B|-------------|-------------|-------------|-------------|
G|-------------|-------------|-------------|-------------|
D|-------------|-------------|-------------|-------------|
A|-------------|--------5----|--------5----|--------5----|
E|--0--0--2--2-|--3--3-----3-|--3--3-----3-|--3--3-----3-|
                                                                   
-------------|-------------|-------------|-------------|
-------------|-------------|-------------|-------------|
-------------|-------------|-------------|-------------|
-------------|-------------|-------------|-------------|
-------------|-----2-------|-----2-------|-----2-------|
--3--3--2--0-|--0-----0--0-|--0-----0--0-|--0-----0--0-|

----------------|----------------|-------------|-------------|
----------------|----------------|-------------|-------------|
----------------|----------------|-------------|-------------|
----------------|----------------|-------------|-------------|
----------------|-----5----------|-----5-------|-----5-----7-|
--0--2--5--3----|--3-----3--3----|--3-----3--3-|--3-----3----|
                                                                    
----------------|----------------|-------------|-------------|
----------------|----------------|-------------|-------------|
----------------|----------------|-------------|-------------|
----------------|----------------|-------------|-------------|
--7--7--5L-5----|-----2----------|-----2-------|-----2-------|
-----------0----|--0-----0--0----|--0-----0--0-|--0-----0--0-|
                                                                    
----------------|----------------|-------------|-------------|
----------------|----------------|-------------|-------------|
----------------|----------------|-------------|-------------|
----------------|----------------|-------------|-------------|
----------------|-----5----------|-----5-------|-----5-----7-|
--0--2--5--3----|--3-----3--3----|--3-----3--3-|--3-----3----|
                                                                       
-------------------|-------------|-------------|-------------|
-------------------|-------------|-------------|-------------|
-------------------|-------------|-------------|-------------|
-------------------|-------------|-------------|-------------|
--7--7--5L-5-------|--2----------|--2----------|-------------|
-----------0--0----|-----0--0--0-|-----0--0--0-|--2--5--3--3-|
                                                                 
-------------|----------------|----------------|--------------|
-------------|----------------|----------------|--------------|
-------------|----------------|----------------|--------------|
-------------|----------------|----------------|--------------|
--5----------|-----5----------|----------------|--2-----------|
-----3--3----|--3-----3--3----|--3--2--0--0----|-----0--0--0--|

                                          n  n           n  n     
----------------|----------------|--------------|-------------|
----------------|----------------|--------------|-------------|
----------------|----------------|--------------|-------------|
----------------|----------------|--------------|-------------|
--2-------------|--2-------------|--------------|-------------|
-----0--0--0----|-----0--0--0----|--2--2--3--3--|--3--3--3--3-|
                                                Горькие  

        n  n             n          n  n                                       
----------------|-------------|-------------|----------------|-------------|
----------------|-------------|-------------|----------------|-------------|
----------------|-------------|-------------|----------------|-------------|
----------------|-------------|-------------|----------------|-------------|
----------------|-------------|-------------|-----------2----|-----------2-|
--3--3--3--3----|--3--3--3----|--3--3--2----|--2--0--0--0----|--0--0--0--0-|
  слезы   накрывают    волной                                     Горькие  

                                          n  n           n  n     
----------------|----------------|--------------|-------------|
----------------|----------------|--------------|-------------|
----------------|----------------|--------------|-------------|
----------------|----------------|--------------|-------------|
-----------2----|----------------|--------------|-------------|
--0--0--0--0----|--0--0--2--2----|--3--3--3--3--|--3--3--3--3-|
слёзы                             Когда плачет     парень

----------------|----------------|----------------|-------------|
----------------|----------------|----------------|-------------|
----------------|----------------|----------------|-------------|
----------------|----------------|----------------|-------------|
----------------|----------------|----------------|-------------|
--3--3--3--3----|--3--3--2--2----|--0--0--0--0----|--0--0--0--0-|
он  больше  не герой                Когда  парень  плачет  уходи постой

                      n  n  n       V  n  n  n       V  n  n  n  V     
----------------|----------------|----------------|----------------|
----------------|----------------|----------------|----------------|
----------------|----------------|----------------|----------------|
----------------|-----------5----|-----------5----|-----------5----|
----------------|-----5--5--5----|--5--5--5--5----|--5--5--5--5--5-|
--0--0--0--0----|--5--3--3--3----|--3--3--3--3----|--3--3--3--3--3-|
                   Поверь   мне некому  сказать

  n  n  n  V       n  n  V  n       n  n  n  n       V  n  n  n     
----------------|----------------|----------------|-------------|
----------------|----------------|----------------|-------------|
----------------|----------------|----------------|-------------|
--------2-------|--------2-------|--------2-------|--------5----|
--2--2--2--2----|--2--2--2--0----|--2--2--2--0----|--5--5--5--5-|
--0--0--0--0----|--0--0--0--0----|--0--0--0--0----|--3--3--3--3-|
 Это стыдно  но никто   не обязан меня слушать        Каждый 

  V  n  n  n       V  n  n  n       V  n  n  n      V  n  n  n     
----------------|----------------|---------------|-------------|
----------------|----------------|---------------|-------------|
----------------|----------------|---------------|-------------|
--------5-------|--------5-------|--------5------|--------5----|
--5--5--5--5----|--5--5--5--5----|--5--5--5--5---|--5--5--5--5-|
--3--3--3--3----|--3--3--3--3----|--3--3--3--3---|--3--3--3--3-|
раз — последний  раз   обещаю  себе        Но я боюсь спать я боюсь 

                         n  n       n  n  V  n       n     n  n     
----------------|----------------|----------------|-------------|
----------------|----------------|----------------|-------------|
----------------|----------------|-----3--3-------|-----3--3----|
----------------|--7s-5L-5--5----|--5--5--5-------|-----5--5----|
--2L-2L-2L-2----|--7s-5L-5--5----|--5--5--5--5----|--5--5--5--5-|
--0L-0L-0L-0----|--5s-3L-3--3----|--3--3--3--3----|--3--3--3--3-|
что ты приснишься мне 

  n  V  n  V       n  V  n  V       V  n  n  V      V  n  n  n     
----------------|----------------|---------------|-------------|
----------------|----------------|---------------|-------------|
--------3--3----|--5--5--5--5----|--------0------|--------0----|
-----5--5--5----|--7--7--7--7----|--2--2--2------|--2--2--2--2-|
--5--5--5--5----|--7--7--7--7----|--2--2--2--2---|--2--2--2--2-|
--3--3--3--3----|--5--5--5--5----|--0--0--0--0---|--0--0--0--0-|

  V  n  n  V       n  n  n  n       n  V  n  V     n  V  n  V     
----------------|----------------|--------------|--------------|
----------------|----------------|--------3--3--|--------3--3--|
--------0-------|----------------|--------3--3--|--------3--3--|
--2--2--2-------|----------------|--5--5--5--5--|--5--5--5--5--|
--2--2--2--2----|--2--2--7--5----|--5--5--5>-5>-|--5--5--5>-5>-|
--0--0--0--0----|--0--2--5--3----|--3--3--3>-3>-|--3--3--3>-3>-|

  n  V  n  n       V  n  V  n       V  n  n  n    V  n  n  V     
----------------|----------------|-------------|-------------|
-----------5----|--5--5--5--5----|-------------|-------------|
-----------5----|--5--5--5--5----|--------0----|--------0----|
--5--5--5--7----|--7--7--7--7----|--2--2--2--2-|--2--2--2--2-|
--5--5--5--7----|--7--7--7--7----|--2--2--2--2-|--2--2--2--2-|
--3--3--3--5----|--5--5--5--5----|--0--0--0--0-|--0--0--0--0-|

  V  n  n  V       n  V  n          n  V  n  n          n  V  n  n     
----------------|----------------|-------------------|-------------|
----------------|----------------|-------------------|-------------|
--------0-------|----------------|-------------------|-------------|
--2--2--2-------|----------------|--------5----------|-----5-------|
--2--2--2--2----|--2--2--4--4----|--5--5--5--5--5----|--5--5--5--5-|
--0--0--0--0----|--0--0--2--2----|--3--3--3--3--3----|--3--3--3--3-|
                                       Горькие  слёзы     

  n  V  n  n       n  n  n  n          V  n  n  n       V  n  n  n     
----------------|-------------------|----------------|-------------|
----------------|-------------------|----------------|-------------|
----------------|-------------------|----------------|-------------|
-----5----------|-------------------|--2-------------|--2----------|
--5--5--5--5----|--5--4--4--2--2----|--2--2--2--2----|--2--2--2--2-|
--3--3--3--3----|--3--2--2--0--0----|--0--0--0--0----|--0--0--0--0-|
 накрывают  волной                           Горькие  слёзы  

  V  n  n  n          n  n  n  V       n  n  n  V       n  n  n  V     
----------------|-------------------|----------------|-------------|
----------------|-------------------|----------------|-------------|
----------------|--------------3----|-----------3----|-----------3-|
--2-------------|--------5--5--5----|--5--5--5--5----|--5--5--5--5-|
--2--2--2--2----|--4--4--5--5--5----|--5--5--5--5----|--5--5--5--5-|
--0--0--0--0----|--2--2--3--3--3----|--3--3--3--3----|--3--3--3--3-|
                                     Когда  плачет  парень  он больше  

  n  n  n             V  n  n       n  n  V  n      n  n  n  V     
----------------|----------------|---------------|-------------|
----------------|----------------|---------------|-------------|
----------------|----------------|---------------|-------------|
----------------|-----2----------|-----2---------|-----2-------|
--5--5--5--2----|--2--2--2--2----|--2--2--2--2---|--2--2--2--2-|
--3--3--3--0----|--0--0--0--0----|--0--0--0--0---|--0--0--0--0-|
 не герой              Когда  парень  плачет   уходи постой

  n  n  n  V       n  V  n  n       n  V       n  n  n  V       n  n  n  n     
----------------|----------------|----------|----------------|-------------|
----------------|----------------|----------|----------------|-------------|
----------------|----------------|----------|----------------|-------------|
----------------|-----5----------|-----5----|-----------5----|-------------|
--2L-2--7--5----|--5--5--5--5----|--5--5----|--5--5--5--5----|--5--5--5--2-|
--0L-0--5--3----|--3--3--3--3----|--3--3----|--3--3--3--3----|--3--3--3--0-|
                              И последнее время  приходя один  домой

  n  V  n  n       n  V  n  n       n  V  n  n       n  n  n  n     
----------------|----------------|----------------|--------------|
----------------|----------------|----------------|--------------|
----------------|----------------|----------------|--------------|
-----2----------|-----2----------|-----2----------|--------5--5--|
--2--2--2--2----|--2--2--2--2----|--2--2--2--2----|--2--7--5--5--|
--0--0--0--0----|--0--0--0--0----|--0--0--0--0----|--0--5--3--3--|
 Предметы  смотрят  на   меня   как будто осуждая Как будто  они  знают   

  V  n  n  n       V  n  n  n       V  n  n  n      V  n  n  V     
----------------|----------------|---------------|-------------|
----------------|----------------|---------------|-------------|
--3-------------|--3-------------|--3------------|--------0----|
--5--5--5--5----|--5--5--5--5----|--5--5--5--5---|--2--2--2--2-|
--5>-5--5--5----|--5--5--5--5----|--5--5--5--5---|--2--2--2--2-|
--3>-3--3--3----|--3--3--3--3----|--3--3--3--3---|--0--0--0--0-|

что я должен был  придти с тобой                    И то же самое  

  V  n  n  V       V  n  n  n       n  n  n  n      V  n  n  n     
----------------|----------------|---------------|-------------|
----------------|----------------|---------------|-------------|
--------0-------|--------0-------|---------------|--3----------|
--2--2--2--2----|--2--2--2--2----|--2--2--5--5---|--5--5--5--5-|
--2--2--2--2----|--2--2--2--2----|--2--2--5--5---|--5--5--5--5-|
--0--0--0--0----|--0--0--0--0----|--0--0--3--3---|--3--3--3--3-|
я вижу  в глазах    твоих знакомых     Поздно ночью на заправке    

  V  n  n  n       n  n  n          n  n  V  n       n  n  n  V     
----------------|----------------|----------------|--------------|
----------------|----------------|--------7-------|-----------7--|
--3-------------|--3-------------|--9--9--9--9----|--9--9--9--9--|
--5--5--5--5----|--5--5--5--5----|--9--9--9--9----|--9--9--9--9--|
--5--5--5--5----|--5--5--5--5----|--7>-7>-7>-7>---|--7>-7>-7>-7>-|
--3--3--3--3----|--3--3--3--3----|----------------|--------------|
я врал себе как наркоман               Хотел остановить     

  n  n  n  V       n  n  n  n       n  V  n  n       n  V  n  n     
----------------|----------------|----------------|---------------|
-----------7----|----------------|----------------|---------------|
--9--9--9--9----|--9--9--9-------|-----12---------|-----12--------|
--9--9--9--9----|--9--9--9--12---|--12-12-12-12---|--12-12-12-12--|
--7>-7>-7>-7>---|--7>-7>-7>-10>--|--10>10>10>10>--|--10>10>10>10>-|
----------------|----------------|----------------|---------------|
 наступающие  тени   Да они меня пугали    но это мой  

  n  V  n  n       n  n                                             
----------------|----------------|----------------|---------------|
----------------|----------------|----------------|---------------|
-----12---------|-----9--9L------|--9--9g-9g-9g---|--9g-9g-9g-9g--|
--12-12-12-12---|--12-12-9L------|--9--9g-9g-9g---|--9g-9g-9g-9g--|
--10>10>10>10>--|--10>10>7L------|--7--7g-7g-7g---|--7g-7g-7g-7g--|
----------------|----------------|----------------|---------------|
  Вьетнам                Что отражается в этом зеркале выглядит ближе 
                                                                    
----------------|----------------|----------------|---------------|
----------------|----------------|----------------|---------------|
--9L-9----------|----------------|----------------|---------------|
--9L-9----------|----------------|----------------|---------------|
--7L-7----------|----------------|----------------|---------------|
-----0--0M-0M---|--0M-0M-0M-0M---|--0M-0M-0M-0M---|--0M-0M-0M-0M--|
чем на самом деле       Горькие   слёзы        накрывают   волной 
                                                                    
----------------|----------------|-------------|-------------|
----------------|----------------|-------------|-------------|
----------------|----------------|-------------|-------------|
----------------|----------------|-------------|-------------|
----------------|--2-------------|--2----------|--2----------|
--3--2--0--0----|-----0--0--0----|-----0--0--0-|-----0--0--0-|
                                                                    
----------------|----------------|--------------|-------------|
----------------|----------------|--------------|-------------|
----------------|----------------|--------------|-------------|
----------------|----------------|--------------|-------------|
--2-------------|----------------|--------------|-------------|
-----0--0--0----|--2--3--3--3----|--3--3--3--3--|--3--3--3--3-|
                        Горькие  слёзы   накрывают  волной
                                                                    
----------------|----------------|--------------|-------------|
----------------|----------------|--------------|-------------|
----------------|----------------|--------------|-------------|
----------------|----------------|--------------|-------------|
----------------|--7-------------|--7-----------|--7----------|
--0--2--5--5----|-----5--5--5----|-----5--5--5--|-----5--5--5-|

        n  n       V  n  n  n       V  n  n  n      V  n  n  n     
----------------|----------------|---------------|-------------|
----------------|----------------|---------------|-------------|
----------------|----------------|---------------|-------------|
--------5--5----|--5--5--5--5----|--5--5--5--5---|--5--5--5--5-|
--------5--5----|--5--5--5--5----|--5--5--5--5---|--5--5--5--5-|
--2--0--3--3----|--3--3--3--3----|--3--3--3--3---|--3--3--3--3-|
                Горькие   слёзы    накрывают   волной

  n  n  n  V       n  n  n  V       n  n  n  V     n  n  n  n     
----------------|----------------|--------------|-------------|
----------------|----------------|--------------|-------------|
----------------|----------------|--------------|-------------|
-----------2----|-----------2----|-----------2--|-----------5-|
--4--2--2--2----|--2--2--2--2----|--2--2--2--2--|--2--2--2--5-|
--2--0--0--0----|--0--0--0--0----|--0--0--0--0--|--0--0--0--3-|

  V  n  V  n       V  n  V  n       V  n  V  n     n  n  n  n     
----------------|----------------|--------------|--------------|
----------------|----------------|--------------|--------------|
----------------|----------------|--------------|--------------|
--5--5--5--5----|--5--5--5--5----|--5--5--5--3--|--3--3--3--3--|
--5--5--5--5----|--5--5--5--5----|--5--5--5--3>-|--3>-3>-3>-3>-|
--3--3--3--3----|--3--3--3--3----|--3--3--3--1>-|--1>-1>-1>-1>-|
 Горькие   слёзы    накрывают   волной

  n  n  n  n       n  n  n  n       V  n  V  n       V  n  V  n     
----------------|----------------|----------------|--------------|
----------------|----------------|----------------|--------------|
----------------|--1--1--1--3----|--3--3--3--3----|--3--3--3--3--|
--3--3--3--3----|--3--3--3--5----|--5--5--5--5----|--5--5--5--5--|
--3>-3>-3>-3>---|--3>-3>-3>-5>---|--5>-5>-5>-5>---|--5>-5>-5>-5>-|
--1>-1>-1>-1>---|--1>-1>-1>-3>---|--3>-3>-3>-3>---|--3>-3>-3>-3>-|

  V  n  V  n       V  n  V  n       V  n  V  n       V  n  V  n     
----------------|----------------|----------------|--------------|
----------------|----------------|----------------|--------------|
--3--3--3--5----|--5--5--5--1----|--1--1--1--1----|--1--1--1--1--|
--5--5--5--7----|--7--7--7--3----|--3--3--3--3----|--3--3--3--3--|
--5>-5>-5>-7>---|--7>-7>-7>-3>---|--3>-3>-3>-3>---|--3>-3>-3>-3>-|
--3>-3>-3>-5>---|--5>-5>-5>-1>---|--1>-1>-1>-1>---|--1>-1>-1>-1>-|

  V  n  V  n       V  n  V  n       V  n  V  n       V  n  V  n     
----------------|----------------|----------------|--------------|
----------------|----------------|----------------|--------------|
--1--1--1--5----|--3--3--3--3----|--3--3--3--3----|--3--9--9--9--|
--3--3--3--7----|--5--5--5--5----|--5--5--5--5----|--5--9--9--9--|
--3>-3>-3>-7>---|--5>-5>-5>-5>---|--5>-5>-5>-5>---|--5>-7>-7>-7>-|
--1>-1>-1>-5>---|--3>-3>-3>-3>---|--3>-3>-3>-3>---|--3>----------|

  n  V  n  V       n  n
----------------|----------------|----||
----------------|----------------|----||
--9--9--9--9----|----------------|----||
--9--9--9--9----|-----5L-5L-5----|----||
--7>-7>-7>-7>---|--7--5L-5L-5----|----||
----------------|--5--3L-3L-3----|----||


Legend:
L - tied note
x - dead note
h - hammer on/pull off
b - bend
s - slide
~ - vibrato
g - ghost note
> - accentuated note
t - trill
M - palm mute
. - staccato
P - popping (bass)
S - slapping (bass)
+ - tapping
W - wide vibrato
< - fade in
w - whammy bar
= - tremolo picking
v - brush up
^ - brush down
V - pick stroke up
n - pick stroke down
comments powered by Disqus
Наверх