Аккорды Соцветие - Как все

Добавлено: @romashka
Дата добавления: 18 Июля 2022г.
Рейтинг:
0.0
Просмотров: 42
Транспонировать - +
[Вступление]:
1|--------------------------------------|
2|--------------------------------------|
3|---------------------11---------------| 
7|------------9---9--9------------------| (х3)
5|---11--11--7---7----------------------|
6|-9---9--------------------------------|

1|--------------------------------------|
2|--------------------------------------|
3|---11--11-----------------------------| 
7|-9---9------9---9---------------------| 
5|----------7---7------11---------------|
6|-------------------9------------------|

C# Em F# (x3)
F# Em C#


[Куплет 1]:
C#             Em          F#
Мысли в голове взяты за пределами
C#                    Em           F#
Беспределы в космосе, беспределы в теле
   C#      Em           F#
Мы улетаем туда куда не нужно
F#              Em   C# 
В обществе будь равнодушен
C#               Em     F#     
Обычно сущностей качают жиром
C#          Em       F#
Раздражение лезет из дырок
C#           Em      F#
Крыша едет будто самосвал
F#        Em            C#
Голова трещит совсем по швам


[Припев] (х2):
C#        Em          F#
Не хочу идти туда как все!
C#         Em           F#
Не хочу остаться в темноте!
C#           Em      F#
Стадо топчет индивидуальность
F#                    Em      C# 
Иди вперёд, чтоб сохранить уникальность!


[Куплет 2]:
C#        Em          F#
Кто хотел оказаться в яме
C#           Em        F#
Тот сейчас сидит между нами
C#          Em        F#
То есть это каждый второй
F#           Em        C# 
Сам выбирай, кто ты такой!
C#         Em           F#     
Непонятно, что хотят другие
C#                Em           F#
Но никто не хочет ложиться в могилы
C#            Em          F#
На плечах должна быть голова!
F#              Em        C#
Фильтровать должна она слова!


[Припев] (х2):
C#        Em          F#
Не хочу идти туда как все!
C#         Em           F#
Не хочу остаться в темноте!
C#           Em      F#
Стадо топчет индивидуальность
F#                    Em      C# 
Иди вперёд, чтоб сохранить уникальность! 
Наверх