Аккорды Spirit - Nature's Way

Добавлено: @romashka
Дата добавления: 05 Декабря 2017г.
Рейтинг:
0.0
Просмотров: 137
Транспонировать - +
Tuning:Standard Tuning.

    Intro...                                Ist verse...
e|-----------------------------------------------------------------------------------|
B|------2-2--2-2--2-2-2-----2-2--2-2--2-2-2-----2-2--2-2--2-2-2-----4-4-4-4-4-4-4-4--|
G|------4-2--4-2--4-2-2-----4-2--4-2--4-2-2-----4-2--4-2--4-2-2-----6-6-6-6-5-5-5-5--|
D|------2-2--2-2--2-2-2-----2-2--2-2--2-2-2-----2-2--2-2--2-2-2-----4-4-4-4-4-4-4-4--|
A|----0-------------------0-------------------0---------------------6-6-6-6-6-6-6-6--|
E|--0-------------------0-------------------0-------------------0-4-4-4-4-4-4-4-4-4--|

e|----------------------------------------------4-4-4-4------------------------------|
B|------2-2--2-2--2-2-2-----4-4-4-4-4-4-4-4-----5-5-5-5--2-2-2--2-3------------------|
G|------4-2--4-2--4-2-2-----6-6-6-6-5-5-5-5-----4-4-4-4--2-2-2--2-3------------------|
D|------2-2--2-2--2-2-2-----4-4-4-4-4-4-4-4-----7-7-7-7--2-2-2--2-3------------------|
A|----0---------------------6-6-6-6-6-6-6-6---4-4-4-4-4-----------2------------------|
E|--0-------------------0-4-4-4-4-4-4-4-4-4------------------------------------------|
                                                   2nd verse...
e|----4-4-4-4--------------0-0-0-0-0-----------------------------------|
B|----5-5-5-5--2-2-2--2-3--0-0-0-0-0--3-3-3-4-3-2----2-2--2-2--2-2-2---|
G|----4-4-4-4--2-2-2--2-3--1-1-1-1-1--3-3-3-3-3-2----4-2--4-2--4-2-2---|
D|----7-7-7-7--2-2-2--2-3--2-2-2-2-2--3-3-3-3-3-2----2-2--2-2--2-2-2---|Etc Etc
A|--4-4-4-4-4-----------2--2-2-2-2-2--2-2-2-2-2-2---0------------------|
E|-------------------------0-0-0-0-0---------------0-------------------|

     

     It's nature's way of telling you something's wrong.
     It's nature's way of telling you in a song.
     It's nature's way of receiving you.
     It's nature's way of retrieving you.
     It's nature's way of telling you something's wrong.
    
     It's nature's way of telling you soon we'll freeze.
     It's nature's way of telling you dying trees.
     It's nature's way of receiving you.
     It's nature's way of retrieving you.
     It's nature's way of telling you something's wrong.

     It's nature's way It's nature's way.
     It's nature's way It's nature's way.

     Then repeat verse one.

     Something's wrong....
     Something's wrong....

     Fade to end.

===============================================================================
Наверх