Аккорды Spirit - Thought I Had A Girl

Добавлено: @romashka
Дата добавления: 05 Декабря 2017г.
Рейтинг:
0.0
Просмотров: 217
Транспонировать - +
Tuning: Standard

Intro

e|---7-10-8-7--5-8-6-5--2-5-3-2-------0h2-----------0h2----|
B|---8-8--8-8--6-6-6-6--3-3-3-3-----3-----3------3------3--|
G|------------------------------0h2----------0h2-----------| Repeat 4x
D|---------------------------------------------------------|
A|---------------------------------------------------------|
E|---------------------------------------------------------|

e|--10-9-8-10-3-3-3----|
B|--10-9-8-10-3-3-3----|
G|--------------0-0----|  Repeat 4x
D|--------------0-0----|
A|---------------------|
E|---------------------|

Verse 1

D                       C                     D
I thought I had a girl    I knew because I
Наверх