Аккорды Spirit - Why Can't I Be Free

Добавлено: @romashka
Дата добавления: 05 Декабря 2017г.
Рейтинг:
0.0
Просмотров: 212
Транспонировать - +
Standard Tuning        


Lyrics:

I don't know what it
Is to be free
And i cry when you say
That you can't
Free me
I just can't
Go on

Why can't i be free
Why can't i be free << this part is whispered


Intro:

    G         D/F#      Em
e|------3--------2--------0-------0----|
B|------0--------3--------0-------0----|
G|----0---0----2---2----0---0---0---0--|
D|-------------------------------------|
A|-------------------------------------|
E|--3--------2--------0-------0--------|


Verse:

    G        D        G        A
e|------3--------2--------3--------0--------0----|
B|------0--------3--------0--------2--------2----|
G|----0---0----2---2----0---0----2---2----2---2--|
D|-----------0-----------------------------------|
A|-----------------------------0--------0--------|
E|--3-----------------3--------------------------|
   
    C          D       F       C        Cm        G
e|------0--------2--------1--------0--------3--------3----|
B|------1--------3--------1--------1--------4--------0----|
G|----0---0----2---2----2---2----0---0----5---5----0---0--|
D|-----------0--------------------------------------------|
A|--3--------------------------3--------3-----------------|
E|--------------------1--------------------------3--------|
   
    A                 G                 A
e|------0--------0--------3--------3--------0--------0----|
B|------2--------2--------0--------0--------2--------2----|
G|----2---2----2---2----0---0----0---0----2---2----2---2--|
D|--------------------------------------------------------|
A|--0--------0--------------------------0--------0--------|
E|--------------------3--------3--------------------------|

Chorus:  (same as intro)

e|------3--------2--------0--------0----|  
B|------0--------3--------0--------0----|
G|----0---0----2---2----0---0----0---0--|
D|--------------------------------------|
A|--------------------------------------|
E|--3--------2--------0--------0--------|
Наверх