Аккорды «SR-71»

SR-71
SR-71 – американская поп-панк-команда, сформированная в 1998 году в Балтиморе, штат Мэриленд. К самым известным их творениям отностятся сингл 2000 года "Right Now", сингл "Tomorrow"(2002), а также SR-71 известны как авторы первоначального варианта песни-хита группы Bowling For Soup – "1985". Название группы пошло от наименования одного из достижений американской военной технологии-SR-71 Blackbird, сверхзвукового разведывательного самолета ВВС США. С 2007 года, группа официально находится в статусе… Читать полностью... SR-71 – американская поп-панк-команда, сформированная в 1998 году в Балтиморе, штат Мэриленд. К самым известным их творениям отностятся сингл 2000 года "Right Now", сингл "Tomorrow"(2002), а также SR-71 известны как авторы первоначального варианта песни-хита группы Bowling For Soup – "1985". Название группы пошло от наименования одного из достижений американской военной технологии-SR-71 Blackbird, сверхзвукового разведывательного самолета ВВС США. С 2007 года, группа официально находится в статусе "перерыв на неопределенное время", после релиза своего последнего альбома Here We Go Again в 2004 году. Творческая деятельность команды сейчас, в основном, выражается в работе вокалиста/гитариста SR-71 Митча Алана над соло-проектом… Действующий состав: Митч Алан / Mitch Allan - основной вокал, гитара (с 1998 года в группе) Пэт ДеМент / Pat DeMent - гитара, вокал (с 2003 года в группе) Майк Руокко / Mike Ruocco - бас-гитара, вокал (с 2003 года в группе) Джон Аллен / John Allen - ударные, вокал (с 2002 года в группе) Скрыть...
Популярные аккорды SR-71:
алфавиту | просмотрам | случайно
  • KEY:
    ~ = LET RING
    
    INTRO:
    | G-|-----------------------------------------------
    | D-|-----------------------------------------------
    | A-|--3-----4--------------------------------------
    | E-|--------------4-----6--------------------------
    
    CHORUS:
    |…
  • Intro
    CUT TIME        H. E E   E E E E E E E E   E E E E E E E E
    G|---------------------------|--------|-----------------|-----------------|
    D|---------------------------|------1/|-6-6-6-6-6-6-6-6-|-6-6-6-6-6-6-6-6-|
    A|--Rest…
  • Tuning: Drop D 1/2 step down
    
    Intro
    Eb|---------------|
    Bb|---------------|
    Gb|--7------------|
    Db|--7----7----5--|
    Ab|--5----7----5--|
    Db|--0----7----5--|
    
    Verse
    Eb|--2--2--3--0--|
    Bb|--3--3--3--3--|
    Gb|--4--2--0--3--|
    Db|--4--0--0--3--|
    Ab|--------------|
    Db|--------------|
    
    Pre-Chorus
    Eb|-------------------------|
    Bb|-------------------------|
    Gb|-------------------------|
    Db|--2---4-5---4-2---5---7--|
    Ab|--2---4-5---4-2---5---7--|
    Db|--2---4-5---4-2---5---7--|
    
    Chorus…
  • Guitar 1 is standard tuning, and Guitar 2 is in drop D
    m = mute
    
    Guitar 1 - LEAD:
    |E|-------------------------------------------------------------------
    |B|-------------------------------------------------------------------
    |G|-------------------------------------------------------------------
    |D|------10--11-10------10--11-10-11------10--11-10--------10--11-10--
    |A|--8--8--11-----11------11--------11--11--11-----11--------11-----11
    |E|-----------------9--9-----------------------------11--11-----------
    
    Guitar…
  • tune guitars down half step
    
        G          E         C         A somethin?         D
    I----3----I----3----I----3----I----0----I--------------2--|I
    I----3----I----3----I----3----I----3----I--------------3--|I
    I----0----I----0----I----0----I----0----I--------------2--|I
    I----0----I----2----I----2----I----2----I--------------0--|I
    I----2----I----2----I----3----I----0----I-----------------|I
    I----3----I----0----I----x----I----x----I-----------------|I
    
    They…
  • Tunning:  Full Step down then drop D (CGCFAD)
    
    Intro and verse riff
                                             (add this part sometimes)
    D||-------------------------------------------------------------------||
    A||-----------^------------------^-----------------------------^--^---||
    F||-----5-----5-----------5------7------(---5-----5-------5-----7--5)-||
    C||--7-----7-----------7-----7----------(7-----7-------7-----7------)-||
    G||-------------------------------------------------------------------||
    C||-------------------------------------------------------------------||
    This…
  • Tuning: Drop D 1/2 step down
    
    Intro
    Eb|------------5---0-2------2p0--10-12-14-------10h12-7---12-14-----0---|
    Bb|------5p3------3-----------------------0h3-0---------0-------0-3--3--|
    Gb|--2h4---------2----0-2----------------------2-------2-2-----2--------|
    Db|---------------------------------------------------------------------|
    Ab|---------------------------------------------------------------------|
    Db|---------------------------------------------------------------------|
    
    Intro/Verse
    Eb|---0---0---0---0-2---0---0---0--------|
    Bb|----3---3---3---------3---3---3--2-3--|
    Gb|--2---2---2---2-----2---2---2---2-----|
    Db|--------------------------------------|
    Ab|--------------------------------------|
    Db|--------------------------------------|
    
    Chorus
    Eb|--2---2----------|
    Bb|--3---2----------|
    Gb|--2---2----------|
    Db|--0---0---9---7--|
    Ab|--0---0---9---7--|
    Db|--0---0---9---7--|
    
    Eb|--2---2------------|
    Bb|--3---2------------|
    Gb|--2---2------------|
    Db|--0---0---5---4-2--|
    Ab|--0---0---5---4-2--|
    Db|--0---0---5---4-2--|
    
    Ending(behind…
  • Intro
    
    |--------------------------------------------------------------|
    |--------------------------------------------------------------|
    |-----7-8---78-8------7-8--78-8--7-8---78-8------7-8--7-8--9-8-|
    |---6--------------5------------6--------------5---------------|
    |--------------------------------------------------------------|
    |--------------------------------------------------------------|
    
    
    verse…
  • Tuning: Drop D 1/2 step down
    
    Intro/Verse
    Eb|----5----3----2---0-|
    Bb|---3----3-----------|
    Gb|-------------2---2--|
    Db|--0----0----0---0---|
    Ab|--------------------|
    Db|-0----0----0---0----|
    
    Chorus A
    Eb|-----------------------------------------|
    Bb|-----------------------------------------|
    Gb|-------12-14-14-14-14-14-15-14-14-12-14--|
    Db|--0-0--0--0--0--0--0--0--0--0--0--0--0---|
    Ab|--0-0------------------------------------|
    Db|--0-0------------------------------------|
    
    Eb|-----------------------------------------|
    Bb|-----------------------------------------|
    Gb|-----------------------------------------|
    Db|--0-0--12-14-14-14-14-14-15-14-14-14-12--|
    Ab|--0-0--0--0--0--0--0--0--0--0--0--0--0---|
    Db|--0-0------------------------------------|
    
    Chorus…
  • Intro/Verse
    Eb|----------------------------|
    Bb|------------------------3-2-|
    Gb|----4-4-2-2-2-----4-4-2-2-2-|
    Db|----4-4-4-4-4-----4-4-4-----|
    Ab|-0h2----------0h2-----------|
    Db|----------------------------|
    
    Chorus A…
  • |-----------------------------------------------
    |-----------------------------------------------
    |-8--8-8-8-8-8-8-12-10-8-5--5-5-5-5-5-5-8-10-12-
    |-8--8-8-8-8-8-8-12-10-8-5--5-5-5-5-5-5-8-10-12-
    |-6--6-6-6-6-6-6-10-8--6-3--3-3-3-3-3-3-6-8--10-
    |-----------------------------------------------
    
    |----------------------------------------
    |----------------------------------------
    |----------------12-10-8-12-10-8-12-10-8-
    |-8--8-8-8-8-8-8-12-10-8-12-10-8-12-10-8-
    |-8--8-8-8-8-8-8-10-8--6-10-8--6-10-8--6-
    |-6--6-6-6-6-6-6-------------------------
    
    
    Verse…
  • !st part of the solo, let the strings ring.
    |--------------------------------------------|
    |--------------------------------------------|
    |19---912---1214---1410-9-9-5-9-9-7-5/7-7|
    |--------------------------------------------|
    |--------------------------------------------|
    |--------------------------------------------|
    Continue…
  • intro:palm mute after playing chord then pick
    
    
    e-----------------------------------------------------------------------------|
    b------------/7----5----------------------5----7----------/7----5-------------|
    g------7----------------7-----------/7-------------------------------7--------|
    d------7----------------------7----------------------5------------------------|
    a------5----------------------7----------------------5------------------------|
    e-----------------------------5----------------------3------------------------|
    
    e----------------------------------------------------------------------------|
    b------/8----7----5----7----5------------------------------------------------|
    g----------------------------------------------------------------------------|
    d----------------------------------------------------------------------------|
    a----------------------------------------------------------------------------|
    e----------------------------------------------------------------------------|
    
    
    verses:play…
  • ~=let ring
    =slide down
    /=slide up
    
    
    Intro: guitar 1              | *play only after 2nd time
                    (play 2x)    | *let ring into the verse
    e----------------------------|-----------------|
    B----------------------------|-----------------|
    G----------------------------|-----------------|
    D---888888444444111111111111-|-/8-8~~---------|
    A---888888444444111111111111-|-/8-8~~---------|
    D---888888444444111111111111-|-/8-8~~---------|…
  • Notation
    /-Slide up
    -Slide Down
    h-Hammer on
    b-Bend
    r-Return from bend
    ()-Play held bend
    v-Vibrato
    ^-Slur (Smooth and constant sound)
    ~-Let ring
    
    Intro: First Guitar:
    e|----------------|-------------------------------------------|
    b|-----10---------|-----10------------------------------------|
    g|-7-------7-9/10-|---------7-9/10------10-7-9/10--12--10-9---|
    d|----------------|-10---------------7---------------------10-|
    a|----------------|-------------------------------------------|
    e|----------------|-------------------------------------------|
    
    e|----------------|-----------------------------------------------|
    b|-----10---------|-----------------------------------------------|
    g|-7-------7-9/10-|-----10--7-9/10—12--10---14--12-10----10h12-10-|
    d|----------------|-10---------------------------------10---------|
    a|----------------|-----------------------------------------------|
    e|----------------|-----------------------------------------------|
    
    Intro:…
  • Intro Part 1
    e|----------------------------------------|
    b|----------------------------------------|
    g|-11-11-11-11--6-6-6-6--8-8-8-8--4-4-4-4-|
    d|-11-11-11-11--6-6-6-6--8-8-8-8--4-4-4-4-|
    a|-9--9--9--9---4-4-4-4--6-6-6-6--2-2-2-2-|
    e|----------------------------------------|
    
    Intro…
  • The songs in Eb,Ab,Db,Gb,Bb,Eb tuning (half step down)
    
    Heres the tab for the intro:
    
    -------------------5----|----------3---------3---|
    --------3------------3--|-------1----1-----1---1-|
    ------------------------|------------------------|
    --4h5-5---5--4h5-5------|--2-3---------3-2-------|
    ------------------------|------------------------|
    ------------------------|------------------------|
    
    
    -------3-----------3----|---8--7----------|
    -----1---1-------1---1--|---------8-------|
    ------------------------|------------7----|
    -0-1---------1-0--------|-----------------|
    ------------------------|-----------------|
    ------------------------|-----------------|
    
    here…
  • INTRO
    (standard tuning)
    e---x---x---x---x---------------------------------|
    b---x---x---x---x---------------------------------|
    g---8---10--12--10--------------------------------|
    d---x---x---x---x---------------------------------|…
Наверх