Аккорды SR-71 - In My Mind

Добавлено: @romashka
Дата добавления: 26 Декабря 2015г.
Рейтинг:
0.0
Просмотров: 147
Транспонировать - +
Tuning: Drop D 1/2 step down

Intro
Eb|------------5---0-2------2p0--10-12-14-------10h12-7---12-14-----0---|
Bb|------5p3------3-----------------------0h3-0---------0-------0-3--3--|
Gb|--2h4---------2----0-2----------------------2-------2-2-----2--------|
Db|---------------------------------------------------------------------|
Ab|---------------------------------------------------------------------|
Db|---------------------------------------------------------------------|

Intro/Verse
Eb|---0---0---0---0-2---0---0---0--------|
Bb|----3---3---3---------3---3---3--2-3--|
Gb|--2---2---2---2-----2---2---2---2-----|
Db|--------------------------------------|
Ab|--------------------------------------|
Db|--------------------------------------|

Chorus
Eb|--2---2----------|
Bb|--3---2----------|
Gb|--2---2----------|
Db|--0---0---9---7--|
Ab|--0---0---9---7--|
Db|--0---0---9---7--|

Eb|--2---2------------|
Bb|--3---2------------|
Gb|--2---2------------|
Db|--0---0---5---4-2--|
Ab|--0---0---5---4-2--|
Db|--0---0---5---4-2--|

Ending(behind solo)
Eb|----------------|
Bb|----------------|
Gb|--5----8----10--|
Db|--5----8----10--|
Ab|--3----6----8---|
Db|----------------|
comments powered by Disqus
Наверх